Police - Every Breath You Take Chords & Tabs

 

Every Breath You Take Chords & Tabs

Police Chords & Tabs

Version: 5 Type: Tab 1 rating
1 star 2 stars 3 stars 4 stars 5 stars
comments

Every Breath You Take Tab

   
#----------------------------------PLEASE NOTE---------------------------------#
#This file is the author's own work and represents their interpretation of the #
#song. You may only use this file for private study, scholarship, or research. #
#------------------------------------------------------------------------------#

Police - Every breath you take

capo 1

Intro/Verse

|--------------------------------------------------------0-------|
|-------0----------0---------------------------3-1---------3-----|
|-----2--2-2-----2--2-2-----0--------0--------0-0-0-0---2-2-2-2--|
|----0-0--0-----0-0--0----4--4-4---4--4-4----------2---0-----0---|
|------------------------2-2--2---2-2--2-----3-------------------|
|--3----------3---------0--------0-------------------------------|

EoV (End of Verse)
 
|--------------0-------|
|----3-1---------3-----|
|---0-0-0-0---2-2-2-2--|
|--------2---0-----0---|
|--3-------------------|
|----------------------|

         Em-Part                  G-Part

|---------------------|    |---------------------|
|---------------------|   |------0--------0-----|
|------0--------0-----|    |----2--2-2---2--2-0--|
|----4--4-4---4--4-4--|    |---0-0--0---0-0--0---|
|---2-2--2---2-2--2---|    |---------------------|
|--0--------0---------|    |--3--------3---------|


Chorus:
[ Tab from: http://www.guitartabs.cc/tabs/p/police/every_breath_you_take_tab_ver_5.html ]
|-----------------------------------------------------------|
|----3-1-------1-0--------0--------0---------2--------2-----|
|---0-0-0-0---0-0-0-0---2--2-2---2--2-2----4--4-4---4--4-4--|
|--------2---------2---0-0--0---0-0--0----2-2--2---2-2--2---|
|--3---------3---------------------------0--------0---------|
|---------------------3--------3----------------------------|

|----0---------0-------|
|------3---------3-----|
|---2-2-2-2---2-2-2-2--|
|--0-----0---0-----0---|
|----------------------|
|----------------------|


Bridge:

|------1--------1---------1--------1-----|
|----------------------------------------|
|----0---0----0---0-----2---2----2---2---|
|---1-1-1-1--1-1-1-1---3-3-3-3--3-3-3-3--| X 2 
|--1--------1---------3--------3---------|
|----------------------------------------|

|------1--------1-----|
|---------------------|
|----0---0----0---0---|
|---1-1-1-1--1-1-1-1--|  
|--1--------1---------|
|---------------------|

End:

|----------------------------------------|
|------0--------0----------------1-0-----|
|----2--2-2---2--2-2-----0------0-0-0-0--| Repeat and fade
|---0-0--0---0-0--0----4--4-4--------2---| 
|---------------------2-2--2---3---------|
|--3--------3--------0-------------------|



Arrangment:

Intro , G-Part
Verse , Em-Part
Verse , G-Part
Chorus
Verse , Em-Part
Bridge
Instrumental: Verse , Em-Part , Verse , G-Part
Chorus
Verse , Em-Part
EoV , Em-Part , Em-Part
End
 
Comments