Police - Every Breath You Take Chords & Tabs

 

Every Breath You Take Chords & Tabs

Police Chords & Tabs

Version: 4 Type: Tab 6 ratings
1 star 2 stars 3 stars 4 stars 5 stars
comments

Every Breath You Take Tab

   
 
every breath you take by the police

 E--------------------------|---------------------------|----------------------------|
 B-------------0------------|---------------0-----------|----------------------------|
 G--------2-------2-----2---|---------2--------2-----0--|--------------0-------------|
 D-----0----0--------0------|------0-----0--------0-----|--------4--------4-----4----|
 A--------------------------|---------------------------|-----2-----2--------2-------|
 E--3-----------------------|---3-----------------------|--0-------------------------|
              g6                                                     em9

[ Tab from: http://www.guitartabs.cc/tabs/p/police/every_breath_you_take_tab_ver_4.html ]
 E-----------------------------|-----------------------------|----------------------------|
 A-----------------------------|---------3-----1-------------|---------------0------------|
 D--------------0--------------|-----0------0-----0------0---|---------2--------2-----0---|
 G--------4--------4-----4-----|-----------------------------|------0-----0--------0------|
 B-----2-----2--------2--------|--3------------------3-------|----------------------------|
 E--0--------------------------|-----------------------------|---3------------------------|
    c9                 c             dsus4                                  g6


 E------------------------------||
 A----------------0-------------||
 D---------2---------2-----2---'||
 G------0-----0---------0-------||
 B-----------------------------'||
 E--3---------------------------||

enjoy!!!
Comments