Police - Every Breath You Take Chords & Tabs

 

Every Breath You Take Chords & Tabs

Police Chords & Tabs

Version: 2 Type: Tab 3 ratings
1 star 2 stars 3 stars 4 stars 5 stars
comments

Every Breath You Take Tab

transcribed by aimeemannboy
every breath you take by the police

|----------------------|--------------------------|
|----2----------2------|--------------------------|
|---4-4-2-4----4-4-2-4-|--------------------------|
|--2----------2--------|---6-7-6-4-6----6-7-6-4-6-|
|-0----------0---------|--4------------4----------|
|----------------------|-0------------0-----------|
[ Tab from: http://www.guitartabs.cc/tabs/p/police/every_breath_you_take_tab_ver_2.html ]
|----0----------2------|--------------------------|
|------3---------5-----|----2----------2----------|
|--2----2-2---4---4--4-|---4-4-2-4----4-4-2-4-----|
|-0------0---2-----2---|--2----------2------------|
|----------------------|-0----------0-------------|
|----------------------|--------------------------|

here's my way of doing it!  it's a bit easier to play than the ones already submitted but sounds quite the same!
Comments