Police - Every Breath You Take Chords & Tabs

 

Every Breath You Take Chords & Tabs

Police Chords & Tabs

Version: 1 Type: Tab 1 rating
1 star 2 stars 3 stars 4 stars 5 stars
comments

Every Breath You Take Tab

Song: Every Breath You Take
Artist: Police
Tabbed by: Tom Leech (tom@cwcom.net)

There are already a couple of tabs for this, but the one I saw was a fret too high, this is an easier way,
if you hav a capo. Ive only done the intro, you can get the rest from the other tab but move it down a fret

Capo fret 1

Intro:
[ Tab from: http://www.guitartabs.cc/tabs/p/police/every_breath_you_take_tab.html ]
e------------------------------------------------------------------|
B---------0----------------0---------------------------------------|
G-----2-----2---2------2-----2---2---------0---------------0-------|
D---0---0-----0------0---0-----0-------4-----4---4-----4-----4---4-|
A------------------------------------2---2-----2-----2---2-----2---|
E-3----------------3---------------0---------------0---------------|

e-------------------------0-------|
B---------3-----------3-----------|
G-----0-----0---0---2---2---2---2-|
D---0---0-----0---0-----------0---|
A-3-------------------------------|
E---------------------------------|
Comments