Police - Don't Stand So Close To Me Chords & Tabs

 

Don't Stand So Close To Me Chords & Tabs

Police Chords & Tabs

Version: 1 Type: Tab 0 ratings
1 star 2 stars 3 stars 4 stars 5 stars
comments

Don't Stand So Close To Me Tab

   
#----------------------------------PLEASE NOTE---------------------------------#
#This file is the author's own work and represents their interpretation of the #
#song. You may only use this file for private study, scholarship, or research. #
#------------------------------------------------------------------------------#

DON'T STAND SO CLOSE TO ME

As recorded by The Police
(From the 1980 Album ZENYATTA MONDATTA)



Gtr I, II, III (E A D G B E) - 'Andy Summers - clean electric'

For Fills see end of tab

Intro
                                H.=H     Q=141
 4/4
  Gtr I
                          PM----------|
  W          H    Q  Q    E E E E E E q    Wx7
|----------:------------:----------------|--------|
|----------:------------:----------------|--------|
|----------:------------:-----3-2--------|--------|
|----------:---------x--:-1-5-----1-3-1--|--------|
|----------:------------:----------------|--------|
|----------:------------:----------------|--------|


  H    Q  Q    Q  Q  Q  Q    Q  Q  Q  Q
|---------3--|----3-----3--|----3-----3--|
|---------4--|----4-----4--|----4-----4--|
|---------3--|----3-----3--|----3-----3--|
|------------|-------------|-------------|
|------------|-------------|-------------|
|------------|-------------|-------------|


  Q   Q  Q   Q    Q   Q  Q   Q    Q   Q  Q  Q
|----10-----10--|----10-----10--|----11-----3--|
|----11-----11--|----11-----11--|----11-----4--|
|----12-----12--|----12-----12--|----12-----3--|
|---------------|---------------|--------------|
|---------------|---------------|--------------|
|---------------|---------------|--------------|


  Q  Q  Q  Q    Q  Q  Q  Q    Q  Q  H
|----3-----x--|----x-----x--|----3-------||
|----4-----x--|----x-----x--|----4-------||
|----3-----x--|----x-----x--|----3-------||
|-------------|-------------|------------||
|-------------|-------------|------------||
|-------------|-------------|------------||


   Verse
Gtr I w/ Fill 2 4th time
    $
    Gtr III
          PM-------------------------------
    Q     Q   E E Q     Q     E E E E Q
||--------------------|-------------------|
||o-------------------|-------------------|
||--------3---2-2-0---|-------3-3-2-2-0---|
||--------5---3-3-1---|-------5-5-3-3-1---|
||o-------------------|-------------------|
||--------------------|-------------------|
|
|   Gtrs I, II
|   PM-------------------------------------
|   E  E  E E E E E E   E  E  E E E E E E
||--------------------|-------------------|
||o-------------------|-------------------|
||--------------------|-------------------|
||--------5-5---------|-------5-5---------|
||o---(6)-----8-8-6-6-|-----------8-8-6-6-|
||--------------------|---(6)-------------|
 |- Rhy Fig 1 (both staffs)

 -----------------------------------|
  Q     Q   E E E E   Q     E E E E Q
|-------------------|-------------------|
|-------------------|-------------------|
|-------5---2-2-----|-------3-3-2-2-----|
|-------3---3-3-3-3-|-------5-5-3-3-3---|
|-------------------|-------------------|
|-------------------|-------------------|
|
|-------------------------------------|
| E  E  E E E E E E   E  E  E E E E E E
|-------------------|-------------------|
|-------------------|-------------------|
|-------------------|-------------------|
|-------5-5-3-3-----|-------5-5-3-3-----|
|---------------3-3-|---------------3-3-|
|---(3)-------------|---(3)-------------|
                          end Rhy Fig 1-|

        PM-----------------------------------------------------------------|
  Q     Q   Q   E E   Q  Q   E E E E   Q     E E Q   E E   Q     E E E E E E
|-------------------|----------------|-------------------|--------------------||
|-------------------|----------------|-------------------|--------------------||
|-------3---2---0-0-|----3---2-2-0-0-|-------3-3-2-------|-------3-3-2-2-0-0--||
|-------5---3---1-1-|----5---3-3-1-1-|-------5-5-3---3-3-|-------5-5-3-3-1-1--||
|-------------------|----------------|-------------------|--------------------||
|-------------------|----------------|-------------------|--------------------||
|
| PM-----------------------------------------------------------------------|
| E  E  E E E E E E   Q  E E E E E E   E  E  E E E E E E   E  E  E E E E E E
|-------------------|----------------|-------------------|--------------------||
|-------------------|----------------|-------------------|--------------------||
|-------------------|----------------|-------------------|--------------------||
|-------5-5---------|----5-5---------|-------5-5-3-3-----|-------5-5-3-3------||
|-----------8-8-6-6-|--------8-8-6-6-|---------------3-3-|---------------3-3--||
|---(6)-------------|----------------|---(3)-------------|---(3)--------------||
|-Rhy Fig 2 (both staffs)                                       end Rhy Fig 2-|


Rhy Fig 1 (Gtr I w/ Fill 3 - 2nd 3rd time)
Rhy Fig 2 (Gtr I w/ Fill 2 - 4th time)  -> to Coda

[ Tab from: http://www.guitartabs.cc/tabs/p/police/dont_stand_so_close_to_me_tab.html ]
 Chorus
Gtr I w/ Fill 1 2nd time
  Gtr I
  E E Q   Q   Q     Q   E E E E Q     Q   E E E E Q     Q   Q   E E Q
|-----------------|-----------------|-----------------|-----2---0-0------||
|---7-7---5-------|-----7-7-5-5-----|---------5h7-----|-----3---0-0------||
|---7-7---6-------|-----7-7-6-6-6---|-----7-7---------|------------------||
|-----------------|-------------7---|-----7-7---------|------------------||
|-----------------|-----------------|-----------------|------------------||
|-----------------|-----------------|-----------------|------------------||
|
| Gtr II
| PM------------------------------------------------------------------|
| E E E E E E E E   E E E E E E E E   E E E E E E E E   E E E E E E E E
|-----------------|-----------------|-----------------|------------------||
|---3-3-3-2-2-----|---3-3-3-2-2-2---|-----------------|------------------||
|-------------2-2-|---------------2-|-------2-2-2-4---|-------0-0--------||
|-----------------|-----------------|-----4-4-4-4-4-4-|-----2-2-2-2-2-2--||
|-----------------|-----------------|---2-2---------2-|---0-0-------0-0--||
|-----------------|-----------------|-----------------|------------------||
|
| Gtr III
| Q   Q   Q   Q     Q   Q   Q   Q     Q   E E E E Q     Q   E E E E E E
|-----5---5-------|-----5---5-------|-----------------|------------------||
|-----7---5-------|-----7---5-------|-----3-3-2-2-----|-----1-1-0-0------||
|-----7---6-------|-----7---6-------|-----4-4-2-2-----|-----2-2-0-0------||
|-----------------|-----------------|-----4-4-4-4-----|-----2-2-2-2-2-2--||
|-----------------|-----------------|-----------------|-------------0-0--||
|-----------------|-----------------|-----------------|------------------||
|-Rhy Fig 3 (all 3)                                        end Rhy Fig 3-|


Gtr I w/ Fill 1 2nd time
  E E Q   E E Q     E E Q   E E Q     E E E E H         Q   Q   E E Q
|-----------------|-----------------|-----------------|-----2---0-0------|
|-----7---5-5-----|-----7---5-5-----|---3-5-5---------|-----3---0-0------|
|---7-7---6-6-----|---7-7---6-6-----|---4-6-6---------|------------------|
|-----------------|-----------------|-----------------|------------------|
|-----------------|-----------------|-----------------|------------------|
|-----------------|-----------------|-----------------|------------------|
|
| PM------------------------------------------------|     PM----------|
| E E E E E E E E   E E E E E E E E   E E E E E E E E   E E E E E E E E
|-----------------|-----------------|-----------------|------------------|
|---3-3-3-2-2-----|---3-3-3-2-2-2---|-----------------|------------------|
|-------------2-2-|---------------2-|---------2-2-----|------------------|
|-----------------|-----------------|-----4-4---4-4-4-|-----2-4-5-2-2-2--|
|-----------------|-----------------|---2---------2-2-|---0-0-0-0-0-0-0--|
|-----------------|-----------------|-----------------|------------------|
|
| Q   Q   Q   Q     Q   Q   Q   Q     Q   E E E E Q     Q   E E E E E E
|-----5---5-------|-----5---5-------|-----------------|------------------|
|-----7---5-------|-----7---5-------|-----3-3-2-2-----|-----1-1-0-0------|
|-----7---6-------|-----7---6-------|-----4-4-2-2-----|-----2-2-0-0------|
|-----------------|-----------------|-----4-4-4-4-----|-----2-2-2-2-2-2--|
|-----------------|-----------------|-----------------|-------------0-0--|
|-----------------|-----------------|-----------------|------------------|


  1.,2.               3.
                                                                      D.S. al Coda
  Q   Q   E E Q       Q   Q   E E Q     Q  E E E E Q     E E E E E E Q
|-----2---0-0------||-----2---0-0-----|----2---0-0-----|-----2---0-0------||
|-----3---0-0-----o||-----3---0-0-----|----3-3-0-0-----|---3-3-3-0-0------||
|------------------||-----------------|----------------|------------------||
|------------------||-----------------|----------------|------------------||
|-----------------o||-----------------|----------------|------------------||
|------------------||-----------------|----------------|------------------||
|
| PM-------------------------------------------------------------------|
| E E E E E E E E     E E E E E E E E   Q  E E E E E E   Q   E E E E E E
|------------------||-----------------|----------------|------------------||
|-----------------o||-----------------|--------0-0-----|-----0------------||
|-----0-0-0--------||-----0-0-0-------|----2-2-0-0-2---|-----0-0-0--------||
|-----2-2-2-2-2-2--||-----2-2-2-2-2-2-|----2-2-----2-2-|-------2-2-2-2-2--||
|---0---------0-0-o||---0---------0-0-|--------------0-|-------------0-0--||
|------------------||-----------------|----------------|------------------||
|
|                         PM-----------------------------------------|
| Q   E E E E E E     Q   E E E E E E   Q  E E E E Q     Q   E E E E Q
|------------------||-----------------|----------------|------------------||
|-----1-1-0-0-----o||-----1-1-0-0-----|----1-1-0-0-----|-----1-1-0-0------||
|-----2-2-0-0------||-----2-2-0-0-----|----2-2-0-0-----|-----2-2-0-0------||
|-----2-2-2-2-2-2--||-----2-2-2-2-2-2-|----2-2-2-2-----|-----2-2-2-2------||
|-------------0-0-o||-------------0-0-|----------------|------------------||
|------------------||-----------------|----------------|------------------||


   Outro
    &
    Rhy Fig 3 x6 and fade



 Fill 1
    PM----------------------------|
  E E E E E E E E   E E E E E E E E
|-----------------|-----------------||
|-----7-7-6-6-4---|-----7-7-6-6-4---||
|---7-----------7-|---7-----------7-||
|-----------------|-----------------||
|-----------------|-----------------||
|-----------------|-----------------||


   Fill 2
    Q   E  E  E  E  E  E   Q   E  E  E  E  E  E
||-----------------------|----------------------|
||o----------------------|----------------------|
||-----12-12-10-10-------|----12-12-10-10-------|
||-----------------13-13-|----------------13-13-|
||o----------------------|----------------------|
||-----------------------|----------------------|


  Q   E  E  E  E  E  E   Q   E  E  E  E  E  E
|----------------------|-----------------------||
|----------------------|----------------------o||
|----12-12-10-10-------|----12-12-10-10--------||
|----------------10-10-|----------------10-10--||
|----------------------|----------------------o||
|----------------------|-----------------------||


 Fill 3
  E E E E E E E E   E E E E E E E E   E E E E E E E E   E E  E E  E E  q
|-----------------|-----------------|-----------------|--------------------||
|-----------------|-----------------|-----------------|-----11---10--------||
|---8-8-8---8-8-8-|---8-8-8-8-8-8-8-|---0-0-0---0---0-|---0----0----0-10---||
|-----------------|-----------------|-------------0---|--------------------||
|-----------------|-----------------|-----------------|--------------------||
|-----------------|-----------------|-----------------|--------------------||


 Fill 4
  E E  E E  E E  E E   E E  E E  E E  E E
|--------------------|--------------------|
|-----11---10--------|-----11---10--------|
|---8----8----8-10-8-|---8----8----8-10-8-|
|--------------------|--------------------|
|--------------------|--------------------|
|--------------------|--------------------|


  E E  E E  E E E E   E E  E E  E E E E
|-------------------|--------------------||
|-----11---10---6---|-----11---10---6----||
|---0----0----0---0-|---0----0----0---0--||
|-------------------|--------------------||
|-------------------|--------------------||
|-------------------|--------------------||
Comments