Police - De Do Do Do De Da Da Da Chords & Tabs

 

De Do Do Do De Da Da Da Chords & Tabs

Police Chords & Tabs

Version: 1 Type: Bass Tab 0 ratings
1 star 2 stars 3 stars 4 stars 5 stars
comments

De Do Do Do De Da Da Da Bass Tab

The Police - " De Do Do Do, De Da Da Da" - Bass Tab

Intro/Chorus/End:
 
|-----|----------------|---------------|---------------|
|-----|*---------------|---------------|-----------7-6-|
|-5-5-|*-0-0-0-0---5-4-|-0-0-0-0---5-4-|-7-7-7-7-------|
|-----|----------------|---------------|---------------|
  & 4    1 & 2 & 3 & 4   1 & 2 & 3 & 4   1 & 2 & 3 & 4
 __________       __________
|all except      |last
|----------------|---------------|
|-----------7-6-*|---------------|
|-7-7-7-7-------*|-7-7-7-7---5-5-|
|----------------|---------------|
  1 & 2 & 3 & 4    1 & 2 & 3 & 4

Verse:

|--------------|-----------------|-----------------|
|*-------------|-----------------|-----------------|
|*-0-0-0-0-0-2-|-----------------|-4-4-4-4-4-4-4-4-|
|--------------|-2-2-2-2-2-2-2-2-|-----------------|
  1 2 & 3 4 &   1 & 2 & 3 & 4 &   1 & 2 & 3 & 4 &
		  (x3)
|------------------|
|---------2---2---*|
|-4-4-4-4---4---4-*|
|------------------|
  1 & 2 & 3 & 4 &   

|-----------------|-----------------|-------------|
|-----------------|---------2---2---|-------------|
|-4-4-4-4-4-4-4-4-|-4-4-4-4---4---4-|-0-0-0-0-0-2-|
|-----------------|-----------------|-------------|
  1 & 2 & 3 & 4 &   1 & 2 & 3 & 4 &   1 & 2 3 4 &
[ Tab from: http://www.guitartabs.cc/tabs/p/police/de_do_do_do_de_da_da_da_btab.html ]
|-----------------|-----------------|-----------------|
|-----------------|-----------------|---------2---2---|
|-----------------|-4-4-4-4-4-4-4-4-|-4-4-4-4---4---4-|
|-2-2-2-2-2-2-2-2-|-----------------|-----------------|
  1 & 2 & 3 & 4 &   1 & 2 & 3 & 4 &   1 & 2 & 3 & 4 &

|---------|-------------|-------------|---------------|
|---------|-------------|-------------|---------------|
|-0-0-0-0-|-0-0-0-0-0-0-|-7-----7-----|-7-7-----7-----|
|---------|-------------|---0-0---0-0-|-----0-0---0-0-|
  1 2 3 4   1 & 2 3 & 4   1 2 & 3 4 &   1 & 2 & 3 4 &

|-----------------|-----------|-------------|---------------|
|-----------------|-----------|-------------|---------------|
|---0---0-0-0-0-0-|-0-0-0-0-0-|-7-----7-----|-7---7-7---5-5-|
|-----------------|-----------|---0-0---0-0-|---0-----------|
  1 & 2 & 3 & 4 &   1 2 3 4 &   1 2 & 3 4 &   1 & 2 & 3 & 4

Other Bit:

|---------|---------|---------|---------|---------|---------|
|---------|---------|---------|---------|---------|---------|
|-----2---|---------|---------|---------|-----2---|---------|
|---------|-----3---|-----5---|-----0---|---------|-----3---|
  1 2 3 4   1 2 3 4   1 2 3 4   1 2 3 4   1 2 3 4   1 2 3 4
				 (x3)  		   (x3)
|-------------|---------------|-------------------|
|-------------|*-------------*|*-2-2-2-2-2-2-2-2-*|
|---0-0-0-0-0-|*-0-0-0-0-0-0-*|*-----------------*|
|-------------|---------------|-------------------|
  1 2 & 3 & 4    1 2 & 3 4 &     1 & 2 & 3 & 4 &

|---------------|
|-2-2-2-2-2-5-5-|
|---------------|
|---------------|
  1 & 2 & 3 & 4

Song Structure:
intro
verse
chorus
verse
chorus
other bit
chorus
end

By: Johari Taylor
E-mail: viking@powerup.com.au   









Comments