Polaris - Hey Sandy Chords & Tabs

 

Hey Sandy Chords & Tabs

Polaris Chords & Tabs

Version: 2 Type: Tab 0 ratings
1 star 2 stars 3 stars 4 stars 5 stars
comments

Hey Sandy Tab

-------------------------------------------------------------------------------
			     HEY SANDY - Polaris
-------------------------------------------------------------------------------

By: wherearemypants

This song was shortened to be the theme song for The Adventures of Pete & Pete

im just going to put the chord progression and the solo... its an easy enough song to figure out
if you play with the cd anyway

e|-----------------|---------------------------------------------------------|
B|-----------------|---------------------------------------------------------|
G|-----------------|----7-----4----------------------------------------------|
D|-12--11--9--6--7-|-7--7--4--4----------------------------------------------|
A|-12--11--9--6--7-|-7--5--4--2----------------------------------------------|
E|-10---9--7--4--5-|-5-----2-------------------------------------------------|

THOSE ARE THE ONLY 2 REAL RIFFS, THEY ARE PLAYED OVER...AND OVER...AND OVER...yet it still sounds good :)

Solo: (Shortened version, which is in the Theme for The Adventures of Pete & Pete)
e|---------------------------------------------------------------------------|
B|---------------------------------------------------------------------------|
G|-9-7-6---------------------------9-7-6-------------------------------------|
D|-------7-7-7-7-7-7-6-6-4-4-4-4-4-------7-7-7-7-7-7-6-6-4-4-4-4-4-----------|
A|---------------------------------------------------------------------------|
E|---------------------------------------------------------------------------|
[ Tab from: http://www.guitartabs.cc/tabs/p/polaris/hey_sandy_tab_ver_2.html ]
e|---------------------------------------------------------------------------|
B|---------------------------------------------------------------------------|
G|-9-7-6-----------------7-7-7-7-7-6-6-6-(9-9-9-9-9-9-6-6-6-6-6-6)-----------|
D|-------7-7-7-7-7-7-6-6------------------7-7-7-7-7-7-4-4-4-4-4-4------------|
A|---------------------------------------------------------------------------|
E|---------------------------------------------------------------------------|
() = optional

Solo: (Main solo, Cd version, it has a couple others which are variations 
			of this or power chords played softly and clean)
e|---------------------------------------------------------------------------|
B|---------------------------------------------------------------------------|
G|-9-7-6---------------------------9-7-6-------------------------------------|
D|-------7-7-7-7-7-7-6-6-4-4-4-4-4-------7-7-7-7-7-7-6-6-4-4-4-4-4-----------|
A|---------------------------------------------------------------------------|
E|---------------------------------------------------------------------------|

e|---------------------------------------------------------------------------|
B|---------------------------------------------------------------------------|
G|-9-7-6-------------6-6-7-7-7-7-7-6-6-6-(9-9-9-9-9-9-6-6-6-6-6-6)-----------|
D|-------7-7-7-7-7-7----------------------7-7-7-7-7-7-4-4-4-4-4-4------------|
A|---------------------------------------------------------------------------|
E|---------------------------------------------------------------------------|
() = optional still. The two solos are very similar. I only put them on here to look fancy.

===============================================================================
Comments