Poison The Well - Obstacle Chords & Tabs

 

Obstacle Chords & Tabs

Poison The Well Chords & Tabs

Version: 1 Type: Tab 0 ratings
1 star 2 stars 3 stars 4 stars 5 stars
comments

Obstacle Tab

   
Song:Obstacle
Artist: Poison the Well
Album: Distance Only Makes the Heart Grow Fonder
Transcribed by: BJ Woodward (sk8ing_woody@hotmail.com)

TUNING D#

||-----------------||     
||-----------------||    
||-----------------||     
||--------1--------||    
||-----0-----------||     
||-----------------||    


||-----------------------------------------------------------------||     
||-----------------------------------------------------------------||    
||-----------------------------------------------------------------||     
||----1--1--1--1--1--1--1--1--1--1--1--1--1--1---------------------||    
||----0--0--0--0--0--0--0--0--0--0--0--0--0--0---------------------||     
||-----------------------------------------------------------------||   
      x  x  x  x  x  x  x 



(very strange rhythm here)
||--------------------------------------------------------||     
||---(0)--------------------------------------------------||    
||---(0)--------------------------------------------------||     
||----1-1----1---1----1---1----1---1---1---1--------------||     "as the weakened, attempt to stand"
||----0-0----0---0----0---0----0---0---0---0--------------||     
||--------------------------------------------------------||   


||---------------------------------------------||     
||---------------------------------------------||    
||---------------------------------------------||     		"the cold wind of progression, causes their downfall"
||-------------------------4---4---4-----------||    
||---2-2---2-2--------2-2--3---3---3-----------||     
||---0-0---0-0--------0-0----------------------||   
     x x   x          x x


CHORUS (lead)
||-----------------------------------||     
||-----------------------------------||    
||-----------------------------------||     
||-----------999777666777666---------||    
||--444666777------------------------||     
||-----------------------------------||   
[ Tab from: http://www.guitartabs.cc/tabs/p/poison_the_well/obstacle_tab.html ]
CHORUS (rhythm)
||----------------------------||     
||----------------------------||    
||----------------------------||     
||---6---2---4----7---6-------||    
||---4---0---2----7---6-------||     
||---4---0---2----5---4-------||   


(picking is played by 2nd guitar)
||--------------------------------------------||     
||------5-------------5-----------5-----------||    
||---6----4--------2----4------4----4---------||    
||---6------6------2------6----4------6-------||     
||---4-------------0-----------2--------------||     
||---4-------------0-----------2--------------||   


RIFF D1
||-------------------------------------||     
||-------------------------------------||    
||-------------------------------------||    
||----------6---------6-----6-----6----||     
||--4-4-4-4---4-4-4-4---4-4---4-4---4--||    
||-------------------------------------||    
    x x x x   x x x x   x x   x x   x

RIFF D2
||-------------------------------------||     
||-------------------------------------||    
||-------------------------------------||    
||----------6---------6-----6-----6----||     
||--0-0-0-0---0-0-0-0---0-0---0-0---0--||    
||-------------------------------------||    
    x x x x   x x x x   x x   x x   x

RIFF D3
||-----------------------------------------------------|     
||-----------------------------------------------------|
||-----------------------------------------------------|    
||----------6---------6-----6-----6--------------------|
||--------------------------------------4-4---4-4-4-4--|
||--4-4-4-4---4-4-4-4---4-4---4-4---4---2-2---2-2-2-2--|  
    x x x x   x x x x   x x   x x   x



SOLO (Pull-offs and Hammer-ons are not marked)
||--------------------------------------------------------------------------------||     
||--------------------------------------------------------------------------------||     
||----------7--9--10--12--10--9-10-12-14-15-17-19-17-15-14-15-14--12-10--9---7----||     
||---7-9-10-----------------------------------------------------------------------||     
||--------------------------------------------------------------------------------||     
||--------------------------------------------------------------------------------||     
Comments