Poison The Well - Nerdy Chords & Tabs

 

Nerdy Chords & Tabs

Poison The Well Chords & Tabs

Version: 3 Type: Tab 0 ratings
1 star 2 stars 3 stars 4 stars 5 stars
comments

Nerdy Tab

Song: Nerdy
Artist: Poison the Well
Album: Distance Only Makes the Heart Grow Fonder
Transcribed by: BJ Woodward (sk8ing_woody@hotmail.com)

Tuning: Standard Tuning

|------------------------------------------------------|
|------------------------------------------------------|
|------------------------------------------------------|
|---------------------------44444--444--444--444-444---|
|--55555--555--555--555-555-22222--222--222--222-222---|
|--33333--333--333--333-333----------------------------|
   xxxx   xx   xx   xxx xxx xxxxx  xxx  xxx  xxx xxx

(lead harmonic guitar for intro)
|-------------------------------------|
|-------------------------------------|    
|-5*--5*---4*----5*--4*---4*--4*----4*|    
|---5*---5*---5*---5*--4*---4*---4*---|    
|-------------------------------------|    
|-------------------------------------|
(* = harmonics)


|---------------------------------------|
|-------------------------------4*------|    
|-5*--5*---4*----5*--4*---4*--4*----4*--|    
|---5*---5*---5*---5*--4*---4*----4*--4*|    
|---------------------------------------|    
|---------------------------------------|
[ Tab from: http://www.guitartabs.cc/tabs/p/poison_the_well/nerdy_tab_ver_3.html ]
"sleep on portraits painted as perfect as you..."
|----------------------------------------------------|
|----------------------------------------------------|
|-------------------------------------5--5-5-(3h5p3)-|
|--5--5-5-(5)---5--5-5-(5)---5--5-5---5--5-5---------|
|--5--5-5-------5--5-5-------5--5-5---3--3-3---------|
|--3--3-3-------2--2-2-------0--0-0------------------|

|----------------------------------------------------------------|
|----------------------------------------------------------------|
|--------------------------------------------5---------5-(3h5p3)-|
|--5----------5--5----------5---5--------5---5-----5-5-----------|
|--5------5-5----5------5-5-----5----5-5-----3--3-3--------------|
|--3--3-3--------2--2-2---------0-00-----------------------------|


|-2222------222-222-2222----|
|-0000------000-000-0000----| 


|--0-0-0-0--|
|--0-0-0-0--|
|--3-3-3-3--|
|-----------|
|-----------|
|-----------|


|------------------0-0-0-0-0-0-0-0-|
|------------------0-0-0-0-0-0-0-0-|
|------------------3-3-3-3-3-3-3-3-|
|----------------------------------|
|-2-2-2-2-2222-2-2-----------------|
|-0-0-0-0-0000-0-0-----------------|
Comments