Poison The Well - Nerdy Chords & Tabs

 

Nerdy Chords & Tabs

Poison The Well Chords & Tabs

Version: 2 Type: Bass Tab 0 ratings
1 star 2 stars 3 stars 4 stars 5 stars
comments

Nerdy Bass Tab

* - strum

Verse 1 x6 
G|-------------------------|
D|-------------------------|
A|-------------------------|
D|--3*--7*-2-2-2-----------|

Chorus (0:39) x4 
G|-------------------------|
D|-------------------------|
A|-------------------------|
D|--3-----2-----0-----8----|

(1:11) 
G|--------------------------|
D|--------------------------|
A|--------------------------|
D|---0------0------0------0-|
[ Tab from: http://www.guitartabs.cc/tabs/p/poison_the_well/nerdy_btab_ver_2.html ]
(1:20)  
G|--------------------------|
D|--------------------------|
A|--------------------------|
D|--0*----------------------|

(1:40) 
G|------------------------------|
D|------------------------------|
A|------------------------------|
D|---0-------0-------0-------0--|

(1:56)x8 
G|-------------------------|
D|-------------------------|
A|-------------------------|
D|--0-0-0-0-000000---------|

(2:29) Strum extremely fast until the songs ends,
G|------------------------|
D|------------------------|
A|------------------------|
D|-0*---------------------|
Comments