Poison The Well - My Mirror No Longer Reflects Chords & Tabs

 

My Mirror No Longer Reflects Chords & Tabs

Poison The Well Chords & Tabs

Version: 1 Type: Tab 0 ratings
1 star 2 stars 3 stars 4 stars 5 stars
comments

My Mirror No Longer Reflects Tab

Song: My Mirror No Longer Reflects
Artist: Poison the Well
Album: Opposite of December
Transcribed by: BJ Woodward (sk8ing_woody@hotmail.com)

^=palm muting
*=harmonize (hit the string with pick and thumb at the same time)

  Play this 3 times, then the drums come in, play until next guitar part
e|---------------------------------------------------------------------------|
B|---------------------------------------------------------------------------|
G|-6-6---6--6-6--------------------------------------------------------------|
D|-4-4---4--4-4--------------------------------------------------------------|
A|-2-2---2--2-2--------------------------------------------------------------|
D|-----0--0-----000-000------------------------------------------------------|
       ^  ^     ^^^ ^^^

  Repeat this part once, then go back to the first riff, listen to the song to
go to the next guitar part.
e|-0-0-000--1--1-----------------0-0-000--1--1-------------------------------|
B|-3-3-333--4--4-----------------3-3-333--4--4-------------------------------|
G|-2-2-222--3--3-----------------2-2-222--3--3-------------------------------|
D|-0-0-000--1--1-----------------0-0-000--1--1-------------------------------|
A|-0-0-000--1--1-00-00-00-00-000-0-0-000--1--1-0000-0000-00------------------|
D|---------------00-00-00-00-000---------------0000-0000-00------------------|
                 ^^ ^^ ^^ ^^ ^^^               ^^^^ ^^^^ ^^
e|---------------------------------------------------------------------------|
B|----------------p----------------------------------------------------------|
G|----------------a-------------------2--------------------------------------|
D|-0--------------u--0--------------0---0-----3-------3---0------------------|
A|-0--------------s--0------------1-------3-7---7-3-7---7-0------------------|
D|-0--------------e--0------------------------------------0------------------|
[ Tab from: http://www.guitartabs.cc/tabs/p/poison_the_well/my_mirror_no_longer_reflects_tab.html ]
   Let this ring out  Ring out                                   Ring out
e|---------------------------------------------------------------------------|
B|---------------------------------------------------------------------------|
G|-----2---------------------------------------------------------------------|
D|---0---0-----3-------3---0------------7-7-7-7--6-6-6-6--9-9-9-9------------|
A|-1-------3-7---7-3-7---7-0------------7-7-7-7--6-6-6-6--9-9-9-9------------|
D|-------------------------0------------7-7-7-7--6-6-6-6--9-9-9-9------------|
                              Ring out   ^ ^ ^ ^  ^ ^ ^ ^  ^ ^ ^ ^
e|---------------------------------------------------------------------------|
B|---------------------------------------------------------------------------|
G|---------------------------------------------------------------------------|
D|-*--*--*--*--------------------------*--*--*--*----------------------------|
A|-5--4--7--8--00000000-0-0-0-00000000-5--4--7--8-00000000-0-0-0-00000000----|
D|-------------00000000-0-0-0-00000000------------00000000-0-0-0-00000000----|
	       ^^^^^^^^ ^ ^ ^ ^^^^^^^^            ^^^^^^^^ ^ ^ ^ ^^^^^^^^
e|---------------------------------------------------------------------------|
B|---------------------------------------------------------------------------|
G|---------------------------------------------------------------------------|
D|-*--*--*--*--------------------------*--*--*--*----------------------------|
A|-5--4--7--8--00000000-0-0-0-00000000-5--4--7--8-00000000-0-0-0-00000000----|
D|-------------00000000-0-0-0-00000000------------00000000-0-0-0-00000000----|
	       ^^^^^^^^ ^ ^ ^ ^^^^^^^^		  ^^^^^^^^ ^ ^ ^ ^^^^^^^^ 
e|---------------------------------------------------------------------------|
B|---------------------------------------------------------------------------|
G|---------------------------------------------------------------------------|
D|-*--*--*--10------10------10------10------10------10------10------10-------|
A|-5--4--7--8--8888-8--8888-8--8888-8--8888-8--8888-8--8888-8--8888-8--8888--|
D|-------------^^^^----^^^^----^^^^----^^^^----^^^^----^^^^----^^^^----^^^^--|
	   
  Yes, this is painful, but for the notes to ring out, you must play it this way
e|---------------------------------------------------------------------------|
B|---------------------------------------------------------------------------|
G|-----------------2---------------------------------------------------------|
D|-0-------------0---0-----3-------3------3-------3-------3-------3----------|
A|-0-----------1-------3-7---7-3-7--7-5-8---8-5-8---8-5-8---8-5-8---3--------|
D|-0-------------------------------------------------------------------------|
     Ring Out!   Aaaannnnndd    Mmmeeeeeee!Keep playing unti the end of the song
Comments