Poison The Well - Mid Air Love Message Chords & Tabs

 

Mid Air Love Message Chords & Tabs

Poison The Well Chords & Tabs

Version: 1 Type: Tab 0 ratings
1 star 2 stars 3 stars 4 stars 5 stars
comments

Mid Air Love Message Tab

   
 	Poison The well
          "Mid Air Love Message"
        
        from Opposite of December

 In this intro which i feel is the most brutal 6 seconds 
 of my life, play this chord steadily strummed with a real 
 solid feel to get the right sound.  Oh yea, get yourself a 
 REALLY good drummer to sound like that.

 The tuning by the way, calls for standard down a step
 a.k.a. (DGCFAD).

 * My symbols:
     ~ = feel it.... do somethin cool w/ it.
     . = stop it on a dime
     ^ = arpegio/strum style

Intro:

  g#m
 (f#m)   

|-----------|
|-----------|
|--1~-------|
|--1~-------|
|--3~-------|
|--4~-------|


|------------------------------------|
|------------------------------------|
|----------8-----8---------8---8-----|
|----------6-----6---------6---6-----|
|----------6-----6---------6---6-----|
|--777777777-77777-777777777-77777---|

 * If i get the wrong number of sevens forgive me cause 
   thats a lot of them, but its tab not music so the rhythm
   you should really hear on the song anyhow.

Transition Section:

|---------------------------|
|---------------------------|
|---------------------------|
|---------------------------|
|---------------------------|
|--00000000-*3---000000000--|
             ^
             Natural
	     Harmonic

|-----------------------|
|-----------------------|
|----------4---------6--|
|----------3---------5--|
|----------2---------3--|
|--00010000--11113110---|


Riff a:

|--------------------------------------------| |
|--------------------------------------------|*|
|----------4---------5---------4-8/9---9/6-5-| |
|----------3---------4---------3-7/8---8/5-4-| |
|----------2---------3---------2-6/7-777/4-3-|*|
|--00010000--11113110--00010000--------------| |

|-----------------------------------| |-----|
|-----------------------------------|*|-----|
|-----------------------------------| |-----|
|----------2~---------2~---------2~-| |--2--|
|----------2~---------2~---------2~-|*|--2--|
|--000000000~-000000000~-000000000~-| |--0--|


Transition 2:

|-------------------| |
|-------------------|*|
|--777-555-777-888--| | about 4x
|--666-444-666-777--| |
|--555-333-555-666--|*|
|-------------------| |
  * with clean tone
   
  * then repeat with high gain tone and guitar 2 

   gtr. 2
|-------------------| |
|-------------------|*|
|-------------------| |
|--666-444-666-777--| |
|--555-333-555-666--|*|
|--444-222-444-555--| |

Riff B:

|----------------------------------|
|----------------------------------|
|----------------------------------|
|--7~--5~--7~--8~--7~--5~--7~--8~--|
|--5~--3~--5~--6~--5~--3~--5~--6~--|
|--5~--3~--5~--6~--5~--3~--5~--6~--|
[ Tab from: http://www.guitartabs.cc/tabs/p/poison_the_well/mid_air_love_message_tab.html ]
|----------------------------------|
|----------------------------------|
|----------------------------------|
|--7~--5~--7~--8~--7~--5~--8~--7~--|
|--5~--3~--5~--6~--5~--3~--8~--7~--|
|--5~--3~--5~--6~--5~--3~--6~--5~--|

  Then.... you do it some more but with a change 
  of feel .. kind of double time-ish.

Riff B1:

|----------------------------|
|----------------------------|
|----------------------------|
|----------------------------|
|----------------------------|
|--5556-5556-5553-5556-5553--|

|---------------------------------|
|---------------------------------|
|---------------------------------|
|---------------------------------|
|---------------------------------|
|--5556-5556-5553-5556-5553-1110--|

Riff B2:

|-------------------------------------|
|-------------------------------------|
|-------------------------------------|
|-----8~-----8~-----5~-----8~-----5~--|
|-----8~-----8~-----5~-----8~-----5~--|
|--5556~--5556~--5553~--5556~--5553~--|

|-------------------------------------------|
|-------------------------------------------|
|-------------------------------------------|
|-----8~-----8~-----5~-----8~-----5~-----2--|
|-----8~-----8~-----5~-----8~-----5~-----2--|
|--5556~--5556~--5553~--5556~--5553~--1110--|
                                         .  


The Clean Section - Interlude:

|--0-----------------------0--------|
|--0-----------------0-------0------|
|--8~------------8-----8-------8-~--|
|--9~----------9---9-----9-------~--|
|--11~------11-------------------~--|
|--0----0---------------------------|

 * For this section this is the general idea and the
   fingering so... just play with it and feel it.


The Pick Scrape:

|------------------------------|
|------------------------------|
|--==ssccccrrrrrrrrrrrr====>---|
|--==sscccckckcrkrkrkrcr===>---|
|------------------------------|
|------------------------------|


"Emotions Can't Cath up With Me / I'm too fast for them"

|------------------------------------------------|
|------------------------------------------------|
|--/9999-------------/9999-----------(0)(0)(0)---|
|-------------------------------------10-10-10~--|
|--/7999-------------/7777------------7--7--7~---|
|--------0000-0000---------0000-0000--8--8--8~---|

|--------------------------------------|
|--------------------------------------|
|--------------------------------------|
|--9-9-9~------------7~------------3~--|
|--6-6-6~------------7~------------3~--|
|--7-7-7~--5555-5555-5~--1111-1111-1~--|
                                  (.)- second time


The Final Breakdown:

|--------------------------------|-----------------|
|--------------------------------|-----------------|
|----------4h5p4----------4h5p4--|----------4h5p4--|
|----------4h5p4----------4h5p4--|----------4h5p4--|
|--------------------------------|-----------------|
|--000-000--------000-000--------|--000-000--------|

|-----------------------|
|-----------------------|
|-----------------------|
|-----------------------|
|-----------------------|
|--000-000-000-000-000--|


      The End.  Be too fast.




Comments