Poison The Well - Lazzaro Chords & Tabs

 

Lazzaro Chords & Tabs

Poison The Well Chords & Tabs

Version: 1 Type: Tab 0 ratings
1 star 2 stars 3 stars 4 stars 5 stars
comments

Lazzaro Tab

   
Artist: Poison The Well
Song: Lazzaro
Album: Tear From The Red
Tuning: Drop C
        C G C F A D
Submitted By: Franko
E-mail: for_the_workforce182@myway.com


P.M.=. (Palm Mute)
h=Hammer
>>=Pick Slide
()=Hold Note/Let Ring



GTR II
Intro/Verse 2x

C--------------------------------------------------------------------
G--------------------------------------------------------------------
C-------------7-7-7-----------10-10-10-------------7-7-7-------------
F--0000--4h5--------0000--4h5-----------0000--4h5--------8888888-----
A--0000--4h5--5-5-5-0000--4h5--8--8--8--0000--4h5--5-5-5-6666666-----
D--0000--4h5--------0000--4h5-----------0000--4h5--------6666666-----
   ....             ....                ....            

GTR II
Do 1x 
C-------------------------------------------------------------------
G-------------------------------------------------------------------
C------------11-11-11-----------10-10-10------------7-7-7-----------
F--0000--4h5----------0000--4h5----------0000--4h5--------8888888---
A--0000--4h5--9--9--9-0000--4h5--8--8--8-0000--4h5--5-5-5-6666666---
D--0000--4h5----------0000--4h5----------0000--4h5--------6666666---
   ....               ....               ....

GTR I
Intro/Verse
C------------------------------------------------------------------
G------------------------------------------------------------------
C-------------7-7-7----------------------------7-7-7---------------
F--0000--4h5--------0000--4h5--888--0000--4h5--------8888888-------
A--0000--4h5--5-5-5-0000--4h5--888--0000--4h5--5-5-5-8888888-------
D--0000--4h5--------0000--4h5--888--0000--4h5--------8888888-------



GTR I/GTR II
C--------------------------------------------------
G--------------------------------------------------
C--------------------------------------------------
F--(0)--(5)--4--5--1--(0)--(5)--4--5--1--(0)-------
A--(0)--(5)--4--5--1--(0)--(5)--4--5--1--(0)-------
D--(0)--(5)--4--5--1--(0)--(5)--4--5--1--(0)-------


GTR I/GTR II
C-----------------------------------------------------------
G-----------------------------------------------------------
C-----------------------------------------------------------
F--00------>>>>>>>>>>>>>>>>>>>>>>>>>>-----------------------
A--00------>>>>>>>>>>>>>>>>>>>>>>>>>>-----------------------
D--00------>>>>>>>>>>>>>>>>>>>>>>>>>>-----------------------
   ..




Verse/GTR I/GTR II



[ Tab from: http://www.guitartabs.cc/tabs/p/poison_the_well/lazzaro_tab.html ]
Breakdown:
GTR I/GTR II
C----------------------------------------------------
G----------------------------------------------------
C----------------------------------------------------
F-00000000000000000000000000000000000000000----------
A-00000000000000000000000000000000000000000----------
D-00000000000000000000000000000000000000000----------
  .........................................

GTR II/You always smell the same........
C--------------------------------------------------------------
G--------------------------------------------------------------
C---------------------2----2----2----2-------------------------
F-0----0----0----0----2----2----2----2----5----5----5----5-----
A-0-00-0-00-0-00-0-00-0-00-0-00-0-00-0-00-5-55-5-55-5-55-5-55--
D-0-00-0-00-0-00-0-00---00---00---00---00-5-55-5-55-5-55-5-55--
    ..   ..   ..   ..   ..   ..   ..   ..   ..   ..   ..   ..
C----------------------
G----------------------
C----------------------
F-4----4----4----4-----
A-5-55-5-55-5-55-5-55--
D-4-44-4-44-4-44-4-44--
    ..   ..   ..   ..


GTR I
C-----------------------------------------------------
G-----------------------------------------------------
C-----------------------------------------------------
F-00000000000000000000000000000000000000000-----------
A-00000000000000000000000000000000000000000-----------
D-00000000000000000000000000000000000000000-----------
  .........................................


GTR II/GTR I
I Hate Your Eyes!!!
C-----------------------------
G-----------------------------
C-----------------------------
F-00---00---00---00-----------
A-00---00---00---00-----------
D-00-0-00-0-00-0-00-----------
  


GTR II/GTR I
C------------------------------------------------
G------------------------------------------------
C--------------2--2--2------7-7-7-7/-8-8-8-8-----
F--0--0--0--0--2--2--2-5-5---------/-------------
A--0--0--0--0--0--0--0-5-5--5-5-5-5/-6-6-6-6-----
D--0--0--0--0----------5-5-----------------------


GTR I
C--------------------------------------------
G--------------------------------------------
C--------------------------------------------
F-00---0----0---00----0---00-----------------
A-00---0----0-0-00-00-0---00-0---------------
D-00-0-0-00-0-0-00-00-0-0-00-0---------------
       .      .

GTR II
C--------------------------------------------------
G--------------------------------------------------
C-------------------------------7-7-7--------------
F-00---0----0---00----0---00-----------------------
A-00---0----0-0-00-00-0---00-0--5-5-5--------------
D-00-0-0-00-0-0-00-00-0-0-00-0---------------------
       .      .

End
GTR I
C----------------
G----------------
C----------------
F--(0)-----------
A--(0)-----------
D--(0)-----------


GTR II
C--------------------
G--------------------
C---(7)--------------
F--------------------
A---(5)--------------
D--------------------
Comments