Poison The Well - Grain Of Salt Chords & Tabs

 

Grain Of Salt Chords & Tabs

Poison The Well Chords & Tabs

Version: 1 Type: Bass Tab 0 ratings
1 star 2 stars 3 stars 4 stars 5 stars
comments

Grain Of Salt Bass Tab

Standard Tuning

G|-----------------------------------------------------------|
D|----4-----4---4---7-----7---7------------------------------|
A|-2-2-2-2-2-222-5-5-5-5-5-555----7-----7---7----------------|
E|-----------------------------5-5-5-5-5-555-33333-3h5-55555-|
B|-----------------------------------------------------------|
2x

G|----------------------------------------------------------------|
D|----------------------------------------------------------------|
A|-22222-22222-222-55555-55555-555--------------------------------|
E|--------------------------------55555-55555-555-33333-3h5-55555-|
B|----------------------------------------------------------------|
4x

G|---------------------------------------|
D|---------------------------------------|
A|---------------------------------------|
E|---------------------------------------|
B|-0-0-00-0-111-3-3-5-5-5-5-333-111------|
4x
[ Tab from: http://www.guitartabs.cc/tabs/p/poison_the_well/grain_of_salt_btab.html ]
G|---------------------------------------|
D|---------------------------------------|
A|---------------------------------------|
E|---------------------------------------|
B|-666666-5-666666-5-666-5---------------|
4x

G|---------------------------------------|
D|---------------------------------------|
A|---------------------------------------|
E|---------------------------------------|
B|-555555-5-555555-5-555-5---------------|
4x

G|---------------------------------------|
D|---------------------------------------|
A|-22222222/44444444/5555555555555555----|
E|---------------------------------------|
B|---------------------------------------|
6x

G|---------------------------------------|
D|---------------------------------------|
A|---------------------------------------|
E|---------------------------------------|
B|-0-0-00-0-111-3-3-5-5-5-5-333-111------|
4x

G|----------------------------------------------------------------|
D|----------------------------------------------------------------|
A|-22222-22222-222-55555-55555-555--------------------------------|
E|--------------------------------55555-55555-555-33333-3h5-55555-|
B|----------------------------------------------------------------|
4x

OUTRO
G|---------|
D|---------|
A|---------|
E|-5h7-7---|
B|---------|
4x
Comments