Poison The Well - For A Bandaged Iris Chords & Tabs

 

For A Bandaged Iris Chords & Tabs

Poison The Well Chords & Tabs

Version: 1 Type: Tab 0 ratings
1 star 2 stars 3 stars 4 stars 5 stars
comments

For A Bandaged Iris Tab

Key: *=Harmonic
     .=Palm Mute
     /=Slide

Intro (2x)
D-------------------------------------------------------------------------|
A-5555555/6666666-(3x)-11-11-11-11-11-11-11-11-14-14-14-14-14-14-14-14----|
F-------6/7777777------11-11-11-11-11-11-11-11-11-11-11-11-11-11-11-11----|
C-------------------------------------------------------------------------|
G-------------------------------------------------------------------------|
c-------------------------------------------------------------------------|

Verse (2x)
D-------------------------------------------------------------------------|
A-------------------------------------------------------------------------|
F----------------------------888-888--------------------------------------|
C-22/3/20-5/888-(3x)-22/3/20-777-777--------------------------------------|
G-24/5/40-5/888------24/5/40----------------------------------------------|
c-2-----0-5/888------2-----0----------------------------------------------|
[ Tab from: http://www.guitartabs.cc/tabs/p/poison_the_well/for_a_bandaged_iris_tab.html ]
Bridge
D-------------------------------------------------------------------------|
A-------------------------------------------------------------------------|
F-------------------------------------------------------------------------|
C-02-----22-----22-----22-------------------------------------------------|
G-02-----22-----22-----22-------------------------------------------------|
c-02-3/6-22-3/6-22-3/6-22-3/6---------------------------------------------|
  .  * *    * *    * *    * *
Pre-Chorus
D-------------------------------------------------------------------------|
A-------------------------------------------------------------------------|
D-------------------------------------------------------------------------|
C-0-------------------00-------------------00-------------------00--------|
G-0-------------------00-------------------00-------------------00--------|
c-0-333333333333/4444-00-333333333333/4444-00-333333333333/4444-00--------|
  . ************ **** .. ************ **** .. ************ **** ..
That's all I have for now, I'll finish it in a couple of days...
Comments