Poison The Well - Crystal Lake Chords & Tabs

 

Crystal Lake Chords & Tabs

Poison The Well Chords & Tabs

Version: 1 Type: Tab 0 ratings
1 star 2 stars 3 stars 4 stars 5 stars
comments

Crystal Lake Tab

   
Title: Crystal Lake
Artist: Poison the Well
Album: You Come Before You
Tuning: Drop-D, down a whole step (CGCFAD)

Tabbed by: Seen K. Leeds (abandapar@socal.rr.com)

Key:
p   = pull-off
~   = ring out
()  = ghost note/optional
.   = palm mute
x   = dead note



D |--------------------------------------------------------------------------------------|
A |--------------------------------------------------------------------------------------|
F |--------------------------------------------------------------------------------------| x 2
C |--1--4--0---5p05p05p05p0---------5p05p05p05p0---------5p05p5p05p0---------5p05p05p05--|
G |--1--4--0-----------------3-0------------------3-0-----------------3-0----------------|
C |--1--4--0(0)--------------3-0(0)---------------3-0(0)--------------3-0(0)-------------|

D |----------------------------------------------------------------------------------------------|
A |----------------------------------------------------------------------------------------------|
F |----------------------------------------------------------------------------------------------|
C |--1--4--0-xxxx-0-xxxx-0-xxxx00000000-0-xxxx-0-xxxx-0-xxxx--3-3--0-xxxx-0-xxxx-0-xxxx00000000--|
G |--1--4--0-xxxx-0-xxxx-0-xxxx00000000-0-xxxx-0-xxxx-0-xxxx--3-3--0-xxxx-0-xxxx-0-xxxx00000000--|
C |--1--4--0-xxxx-0-xxxx-0-xxxx00000000-0-xxxx-0-xxxx-0-xxxx--3-3--0-xxxx-0-xxxx-0-xxxx00000000--|
  pm                           ........ 

  (cont'd)
D |-------------------------------|
A |-------------------------------|
F |-------------------------------|
C |--0-xxxx-0-xxxx-0-xxxx--3-3-3--|
G |--0-xxxx-0-xxxx-0-xxxx--3-3-3--|
C |--0-xxxx-0-xxxx-0-xxxx--3-3-3--|

D |--------------------------------------------------------------------------------|
A |--------------------------------------------------------------------------------|
F |--------------------------------------------------------------------------------|
C |--0---5p05p05p05p0---------5p05p05p05p0---------5p05p5p05p0---------5p05p05p05--|
G |--0-----------------3-0------------------3-0-----------------3-0----------------|
C |--0(0)--------------3-0(0)---------------3-0(0)--------------3-0(0)-------------|

D |--------------------------------------------------------------------------------------|
A |--------------------------------------------------------------------------------------|
F |--------------------------------------------------------------------------------------|
C |--1--4--0---5p05p05p05p0---------5p05p05p05p0---------5p05p5p05p0---------5p05p05p05--|
G |--1--4--0-----------------3-0------------------3-0-----------------3-0----------------|
C |--1--4--0(0)--------------3-0(0)---------------3-0(0)--------------3-0(0)-------------|
[ Tab from: http://www.guitartabs.cc/tabs/p/poison_the_well/crystal_lake_tab.html ]
D |----------------------------------------------------------------------------------------------|
A |----------------------------------------------------------------------------------------------|
F |----------------------------------------------------------------------------------------------|
C |--1--4--0-xxxx-0-xxxx-0-xxxx00000000-0-xxxx-0-xxxx-0-xxxx--3-3--0-xxxx-0-xxxx-0-xxxx00000000--|
G |--1--4--0-xxxx-0-xxxx-0-xxxx00000000-0-xxxx-0-xxxx-0-xxxx--3-3--0-xxxx-0-xxxx-0-xxxx00000000--|
C |--1--4--0-xxxx-0-xxxx-0-xxxx00000000-0-xxxx-0-xxxx-0-xxxx--3-3--0-xxxx-0-xxxx-0-xxxx00000000--|
  pm                           ........ 

  (cont'd)
D |-------------------------------------------------------|
A |-------------------------------------------------------|
F |-------------------------------------------------------|
C |--0-xxxx-0-xxxx-0-xxxx--3--3--3--2~---0~---2~---0~-----|
G |--0-xxxx-0-xxxx-0-xxxx--3--3--3--2~---0~---2~---0~-----|
C |--0-xxxx-0-xxxx-0-xxxx--3--3--3--2~---0~---2~---0~-----|

   
  I've seen live footage of PtW playing this song, and during the part where the bass goes --
  
  (1:17)
C |--------------------------|
G |--------------------------| x 4
C |--0000-0000-0000-0000--00-|
  pm                      ..  

-- Derek and Ryan fret the third string at the 4th fret and pick *above* the fretted note, while
also hitting the second-string harmonic on the 4th fret. It makes an odd squealing sound. 
You can f' around with that a bit, or play the bass part above with the full open chord (either
way, you should play the palm-muted notes of the part above).

  (1:37)
D |-----------------------------------------------------------------------------------------|
A |-----------------------------------------------------------------------------------------|
F |-----------------------------------------------------------------------------------------| x 2
C |------------------------------------------------------------------------------------000--|
G |----------2p0------------------2p0------------------2p0------------------2p0--------000--|
C |--3p0-3p0-----2h3p0----3p0-3p0-----2h3p0----3p0-3p0-----2h3p0----3p0-3p0-----2h3p0--000--|
  pm                                                                                   ...    

D |--------------------------------------------------------------------------------|
A |--------------------------------------------------------------------------------|
F |--------------------------------------------------------------------------------|
C |--00--5p05p05p05p0---------5p05p05p05p0---------5p05p5p05p0---------5p05p05p05--|
G |--00----------------3-0------------------3-0-----------------3-0----------------|
C |--00----------------3-0(0)---------------3-0(0)--------------3-0(0)-------------|

D |--------------------------------------------------------------------------------------|
A |--------------------------------------------------------------------------------------|
F |--------------------------------------------------------------------------------------|
C |--1--4--0---5p05p05p05p0---------5p05p05p05p0---------5p05p5p05p0---------5p05p05p05--|
G |--1--4--0-----------------3-0------------------3-0-----------------3-0----------------|
C |--1--4--0(0)--------------3-0(0)---------------3-0(0)--------------3-0(0)-------------|

D |------------------------------------------------------------------------------------------||
A |------------------------------------------------------------------------------------------||
F |------------------------------------------------------------------------------------------||
C |--1----4----0000-0000-0000-0000-0000-0000-0000-0000-0~----0~------------------------------||
G |--1----4----0000-0000-0000-0000-0000-0000-0000-0000-0~----0~--and just ring the fark out--||
C |--1----4----0000-0000-0000-0000-0000-0000-0000-0000-0~----0~------------------------------||


End.


Comments, corrections, kudos, and 'f-yous' are welcome (abandapar@socal.rr.com).
Comments