Poison The Well - Botchia Chords & Tabs

 

Botchia Chords & Tabs

Poison The Well Chords & Tabs

Version: 1 Type: Bass Tab 0 ratings
1 star 2 stars 3 stars 4 stars 5 stars
comments

Botchia Bass Tab

Drop D tuning

Verse (Play 2 times)
G|--------------------------------------------------------------|
D|--------------------------------------------------------------|
A|-6-6-6-6-6-6-6-6-6-6-6-6-6-6----------------------------------|
D|------------------------------8-8-8-8-5-5-5-5-5-5-5-5-5-5-5-5-|

(2 times)

G|------------------------------------------------------------|
D|------------------------------------------------------------|
A|---------------6-------------------6------------------------|
D|-0-0-0---0-0-0-------0-0-0---0-0-0----8-8-8-5-5-5-5-5-5-5-5-|

(2 times)
G|---------------------------------------------|
D|---------------------------------------------|
A|---------------------------------------------|
D|-0---------------0---------------0---------7-|

G|--------|
D|--------|
A|-4-5-7--|
D|--------|

G|---------------------------------------|
D|*-------------------------------------*|
A|*-------------------------------------*|
D|-7-7-7-7-7-7-7----4-4-4-5-5-5-7--------|
[ Tab from: http://www.guitartabs.cc/tabs/p/poison_the_well/botchia_btab.html ]
Verse (Play 2 times)
G|--------------------------------------------------------------|
D|--------------------------------------------------------------|
A|-6-6-6-6-6-6-6-6-6-6-6-6-6-6----------------------------------|
D|------------------------------8-8-8-8-5-5-5-5-5-5-5-5-5-5-5-5-|

                   (x2)
G|-------------------------------|
D|-------------------------------|
A|-------------------------------|
D|--5--5--5--5--5----------------|

G|--------------------------------------------------------|
D|--------------------------------------------------------|
A|--------------------------------------------------------|
D|-0-0-0-0-0-0-0---8-8-8-----0-0-0-0-0-0-0---8-8-8--------|

G|------------------------------------------------------|
D|------------------------------------------------------|
A|------------------------------------------------------|
D|-0-0-0-0-0-0-0---8-8-8-----0-0-0-0-0-0-0---8-8-8------|

Outro
G|----------------------------------------------|
D|----------------------------------------------|
A|----------------------------------------------|
D|-0---------------0-------------0--------------|

G|--------|
D|--------|
A|-4-5-7--|
D|--------|
Comments