Poison The Well - Artists Rendering Of Me Chords & Tabs

 

Artists Rendering Of Me Chords & Tabs

Poison The Well Chords & Tabs

Version: 1 Type: Tab 0 ratings
1 star 2 stars 3 stars 4 stars 5 stars
comments

Artists Rendering Of Me Tab

Song: Artists Rendering of Me
Artist: Poison the Well 
Album: The Opposite of December 
Transcribed by: BJ Woodward (sk8ing_woody@hotmail.com)

Tuning: Standard

|---------------------------------------------------------------------|
|---------------------------------------------------------------------|
|---------------------------------------------------------------------|
|-99-----99------99----88-----88------88----55------99------99----88--|
|---7777----7777----77----7777---7777----77----7777----7777----77-----|
|---------------------------------------------------------------------|


"with all my said unsaids.."
|------------|------------------------------|
|------------|------------------------------|
|------------|------------------------------|
|----7----3--|------------------------------|
|----7----3--|--2--2-2---2-2-2-22-22--2-2-2-|
|----5----1--|--0--0-0---0-0-0-00-00--0-0-0-|
	        x  x x   x x x xx xx  x x x
	 	    	
			
|--------------------------------|
|--------------------------------|
|--9---5---7---4-4---------------|
|--0---0---0---0-0---------------|
|--7---3---5---2-2----22222222---|
|--0---0---0---0-0----00000000---|
	              xxxxxxxx	
[ Tab from: http://www.guitartabs.cc/tabs/p/poison_the_well/artists_rendering_of_me_tab.html ]
			
|-----------------------|
|-----------------------|		
|-----------------------|		
|--2--------3------3----|	|----------|
|--2----2-2-3------3--2-|	|-222-222--|
|--0----0-0-1------1--0-|	|-000-000--|
               		          xxx xxx



|----------------------------------------|
|----------------------------------------|
|----------------------------------------|
|--------------9-------------------------|
|-10-------10---------9---9-----9--------|
|----0000--------0000--00--7777--7777-77-|


(Clean)
|---------|               |-----------|
|---------| 		  |-----------|
|------4--| 	          |------5----|	
|----5--5-|(rhythm guitar)|--2---5----|	add some 5th fret harmonics
|--3------| 	          |--2---3----|	let 0 ring..
|---------|  	          |--0--------|
 

|------------------------------------------------|
|------------------------------------------------|
|------------------------------------------------|
|--4-4-4-5-5-5-5-5-4-4-4-5-5-5-5-----------------|
|--0-0-0-0-0-0-0-0-0-0-0-0-0-0-0-2-2-2-2-2-2-2-2-|
|--------------------------------0-0-0-0-0-0-0-0-|
   		                 x x x x x x x x


With all my said unsaids / Never swallow
The idea of a happy ending 
Another days memory dies 
As I'm made to smile / these lifeless days
have left me with an empty heart
another wounded memory dies
I could / never / swallow your false ideals
of a lifeless / happy ending
how could words slit wrists and doors close
present day heart felt moments / killed by a slap 
to the hand / another wounded memory dries
poisonous screams with messages 
not thought of when released 
another day here / another memory dies

Comments