Poison The Well - A Wish For Things That Work Chords & Tabs

 

A Wish For Things That Work Chords & Tabs

Poison The Well Chords & Tabs

Version: 1 Type: Bass Tab 0 ratings
1 star 2 stars 3 stars 4 stars 5 stars
comments

A Wish For Things That Work Bass Tab

   
Drop D tuning

Intro
G|----------------------------|
D|----------------------------|
A|----------------------------|
D|-0~----------------0~-------|

Verse
G|--------------------------------------------------------|
D|--------------------------------------------------------|
A|--------------------------------------------------------|
D|-000000--000000--10--34--10--34--000000--000000--000000-|

G|----------------------------------------|
D|----------------------------------------|
A|----------------------------------------|
D|-000000--000000--000000--000000--000000-|

G|---------------------|
D|---------------------|
A|---------------------|
D|-5~--------5~--------|

Chorus
G|---------------------------|
D|---------------------------|
A|---------------------------| x4
D|-555-55-55-55-444-44-44-44-|
[ Tab from: http://www.guitartabs.cc/tabs/p/poison_the_well/a_wish_for_things_that_work_btab.html ]
G|------|
D|------|
A|------|
D|-0~---|

G|-------------------------------------|
D|-------------------------------------|
A|-------------------------------------| x4
D|-00000000-00000000-11111111-22222222-|

G|------|
D|------|
A|------|
D|-0~---|

Outro
G|----------------------------7--7--2--2--3--3--2--2-|
D|---8--8--7--7--5--5--7--7--------------------------|
A|---------------------------------------------------| x2
D|-55-55-55-55-55-55-55-55--33-33-33-33-33-33-33-33--|

G|-------------------------------------|
D|-------------------------------------|
A|-66666666-55555555-11111111-22222222-| x2
D|-------------------------------------|

G|-------------------------------------------------| 
D|-------------------------------------------------|
A|-6-6-6-6-6-6-5-5-5-5-5-5-1-1-1-1-1-1-2-2-2-2-2-2-| x2
D|-------------------------------------------------|
Comments