Poison Idea - One By One Chords & Tabs

 

One By One Chords & Tabs

Poison Idea Chords & Tabs

Version: 1 Type: Tab 0 ratings
1 star 2 stars 3 stars 4 stars 5 stars
comments

One By One Tab

http://www.vh1.com/artists/az/poison_idea/253299/album.jhtml

Band: Poison Idea
Song: One by One


tabbed by jam9383@yahoo.com


Intro

e---------------------------------------------------------------------|
B-------7-8-7---------10-8-7------------------------------------------|
G----7--------7---------------7---------------------------------------|
D--7------------7--8-------------7--8---------------------------------|
A------------------8----------------8---------------------------------|
E------------------6----------------6---------------------------------|


e---------------------------------------------------------------------|
B--------------3------3----3---3-3---3---3---3-3----------------------|
G-----------2----3------3--3---3-3---3---3---3-3----------------------|
D--------2----------3------3---3-3---3---3---3-3----------------------|
A--2--3--------------------1---1-1---1---1---1-1----------------------|
E---------------------------------------------------------------------|

Verse

e---------------------------------------------------------------------|
B-----7-8-7----------------------10-8-7-------------------------------|
G---7-------7---------------------------7-----------------------------|
D-7-----------7--8-8-8-8-8-8-8-8----------7-8-8-8-8-8-8-8-8-----------|
A----------------8-8-8-8-8-8-8-8------------8-8-8-8-8-8-8-8-----------|
E----------------6-6-6-6-6-6-6-6------------6-6-6-6-6-6-6-6-----------|

Bridge
[ Tab from: http://www.guitartabs.cc/tabs/p/poison_idea/one_by_one_tab.html ]
e---------------------------------------------------------------------|
B---------------------------------------------------------------------|
G---7-----------------------------------------------------------------|
D---7----8----3----8----7----8----3-----------------------------------|
A---5----8----3----8----7----8----3-----------------------------------|
E--------6----1----6----5----6----1-----------------------------------|

Chorus

e---------------------------------------------------------------------|
B---------------------------------------------------------------------|
G--7-7-7--------------------------------------------------------------|
D--7-7-7--8-8-8--3-3-3--8-8-8--7-7-7--8-8-8--3-3-3--------------------|
A--5-5-5--8-8-8--3-3-3--8-8-8--7-7-7--8-8-8--3-3-3--------------------|
E---------6-6-6--1-1-1--6-6-6--5-5-5--6-6-6--1-1-1--------------------|

Pre Outro

e---------------------------------------------------------------------|
B---------------------------------------------------------------------|
G-7-7-7-7-7-7-7-7-7-7-7-7-7-------------------------------------------|
D-7-7-7-7-7-7-7-7-7-7-7-7-7--8-8-8-8-8-8-3-3-3-3-3-3-8-8-8-8-8-8------|
A-5-5-5-5-5-5-5-5-5-5-5-5-5--8-8-8-8-8-8-3-3-3-3-3-3-8-8-8-8-8-8------|
E----------------------------6-6-6-6-6-6-1-1-1-1-1-1-6-6-6-6-6-6------|


e---------------------------------------------------------------------|
B---------------------------------------------------------------------|
G---------------------------------------------------------------------|
D--3-3-3-3-3-3--------------------------------------------------------|
A--3-3-3-3-3-3--------------------------------------------------------|
E--1-1-1-1-1-1--------------------------------------------------------|

Outro
e---------------------------------------------------------------------|
B---------------------------------------------------------------------|
G--7-7-7-7-7-8-7---7-7-7-7-7-8-7--------------------------------------|
D--7-7-7-7-7-8-7---7-7-7-7-7-8-7-7-7-7-7-7-8-7---7-7-7-7-7-8-7--------|
A--5-5-5-5-5/6-5---5-5-5-5-5/6-5-7-7-7-7-7-8-7---7-7-7-7-7-8-7--------|
E--------------------------------5-5-5-5-5/6-5---5-5-5-5-5/6-5--------|

any comments/corrections contact me , please rate
Comments