Poison - Unskinny Bop Chords & Tabs

 

Unskinny Bop Chords & Tabs

Poison Chords & Tabs

Version: 2 Type: Bass Tab 0 ratings
1 star 2 stars 3 stars 4 stars 5 stars
comments

Unskinny Bop Bass Tab

   
For Intro
G|---------------------------------------------------------------|
D|---------------------------------------------------------------|
A|---------------------------------------------------------------|
E|-4-4-4-4-4-4-4-4-4-4-4-4-4-4-4-4-4-4-4-4-4-4-4-4-4-4-4-4-4-4-4-|
[ Tab from: http://www.guitartabs.cc/tabs/p/poison/unskinny_bop_btab_ver_2.html ]
At 0:45
G|-----------------------------|
D|-----------------------------|
A|-----------------------------|
E|-0-0-0-22--0-0-0-3--0-0-0-22-|

Chorus at 0:58
G|-----------------|
D|---------3-4-5-6-|
A|-0-2-3-4---------|
E|-----------------|

At 1:13
G|-------------|
D|-------------|
A|-------------|
E|-01-02-03-04-|
Comments