Poison - Talk Dirty To Me Chords & Tabs

 

Talk Dirty To Me Chords & Tabs

Poison Chords & Tabs

Version: 4 Type: Tab 0 ratings
1 star 2 stars 3 stars 4 stars 5 stars
comments

Talk Dirty To Me Tab

------------------------------7-7--5-5--3-3--2-2-------------------------------------------|
----5--3--1--0---5--3--1--0---8-8--7-7--5-5--3-3--5-5--3-3--1--o--5--3--1--0---5--3--1--0--|
----5--4--2--0---5--4--2--0-----------------------5-5--4-4--2--0--5--4--2--0---5--4--2--0--|
-------------------------------------------------------------------------------------------|
-------------------------------------------------------------------------------------------|
-------------------------------------------------------------------------------------------|

[ Tab from: http://www.guitartabs.cc/tabs/p/poison/talk_dirty_to_me_tab_ver_4.html ]
----2-2-2-2-3-3-3-3-5-7-7-7-------8-8-----8-8-----8-8-----8-8-8-8-8-8----------------|
----3-3-3-3-5-5-5-5-7-8-8-8-------8-8-----8-8-----8-8-----8-8-8-8-8-8----------------|
------------------------------10^-----10^-----10^-----10^----------------------------|
-------------------------------------------------------------------------------------|
-------------------------------------------------------------------------------------|
-------------------------------------------------------------------------------------|

                                                                    full   full
----3p2p0------------------------------------------------------------------------15-15-15----------------------------------|
----------3p2p0---------------------------------------------------------------------------15-15-15-------------------------|
----------------4p2p0-------4p2p0---------------2-2-4-4-5-5-6-6-7--14^12--14^12--------------------12-12-12----------------|
----------------------4p2p0-------4p2p0---------------------------------------------------------------------12-12-12-------|
----------------------------------------4p2p0------------------------------------------------------------------------9-9-9-|
----------------------------------------------3----------------------------------------------------------------------------|

   First tab... be gentle
Comments