Poison - Talk Dirty To Me Solo Chords & Tabs

 

Talk Dirty To Me Solo Chords & Tabs

Poison Chords & Tabs

Version: 2 Type: Tab 1 rating
1 star 2 stars 3 stars 4 stars 5 stars
comments

Talk Dirty To Me Solo Tab

   
POISON
Talk dirty to me
solo: SONG IS TUNED DOWN 1/2 STEP
I cleaned this tab up a bit from someone elses post,
what you need to get down is the
double stops ... on the first part of the solo,
and its tripplets down the second, back to double stops
listen to the solo a few times while watching the tab ..
youll get the hang of it..
U=up stroke
D=Down stroke
X=your muting or dampening the sound of the ringing of the strings
  
fIG 1                     fIG 2   
    D-U  D U D D  U            D  U   D U D    D U D  D U D  D U D   D U D  D  U  D
-----------------------|    |------------------------------------------------------|
----5-5--3-3-X-1--0---0|    |-12-12---10-X-X---8-X-X--7-X-X  5-X-X---3-X-X--1--0--0|
----5-5--4-4-X-2--0---0| 2X |-12-12---11-X-X---9-X-X--7-X-X--5-X-X---3-X-X--2--0--0|
-----------------------|    |------------------------------------------------------|
-----------------------|    |------------------------------------------------------|
-----------------------|    |------------------------------------------------------|

[ Tab from: http://www.guitartabs.cc/tabs/p/poison/talk_dirty_to_me_solo_tab_ver_2.html ]
fIG 1                       fIG 3   
    D-U  D U D D  U            
-----------------------|    |----------------------------|
----5-5--3-3-X-1--0---0|    |-7-7-X-8-8-X-10-10-X-12-12--|
----5-5--4-4-X-2--0---0| 2X |-7-7-X-9-9-X-11-11-X 12-12--|
-----------------------|    |----------------------------|
-----------------------|    |----------------------------|
-----------------------|    |----------------------------|


FIG 4
--------8-8-8----8-8-8----8-8-8----8-8-8----|
--------8-8-8----8-8-8----8-8-8----8-8-8----|
-----10^------10^-------10^-----10^---------|
--------------------------------------------|
--------------------------------------------|
--------------------------------------------|

FIG 5
----3-2-0---------------------------------------------------|
----------3-2-0---------------------------------------------|
----------------4-2-0--------4-2-0--------------------------|
----------------------4-2-0---------4-2-0-------------------|
-------------------------------------------3-2-0------------|
--------------------------------------------------3-2-0-----|

FIG 6
--------------------------------------------------------|
--------------------------------------------------------|
----2-2--4-4--5-5--7----14^-14--12-----14^-14-12-12-----|
--------------------------------------------------------|
--------------------------------------------------------|
--------------------------------------------------------|

FIG 7
----15-15-15----------------------------------------|
-------------15-15-15-------------------------------|
-----------------------12-12-12---------------------|
--------------------------------12-12-12------------|
------------------------------------------9-9-9-----|
----------------------------------------------------|   RIGHT BACK INTO THE C CHORD OF THE CHORUS

PLAY AS FOLLOWS

FIG 1: 2 TIMES DOUBLE STOPS
FIG 2: 1 TIME  TRIPLETS
FIG 1: 2 TIMES DOUBLE STOPS
FIG 3: 1 TIME
FIG 4: 1 TIME
FIG 5: 1 TIME
FIG 6: 1 TIME
FIG 7: 1 TIME
Question or comments bullwinklemoose101@yahoo.com







Comments