Poison - Talk Dirty To Me Chords & Tabs

 

Talk Dirty To Me Chords & Tabs

Poison Chords & Tabs

Version: 1 Type: Bass Tab 0 ratings
1 star 2 stars 3 stars 4 stars 5 stars
comments

Talk Dirty To Me Bass Tab

   
                          BASSLINE FOR TALK DIRTY TO ME
                              As recorded by Poison
Tune Down 1/2 Step
gemini67@globalfreeway.com.au


|--------|-----------|------------------|-----------------|--------------------------|
|--------|-----------|------------------|-----------------|--------------------------|
|--------|-------10\-|-3---3-(3)-3-3/-5-|-5---5-(5)-5-5-5-|-9/-10-10-10-9/-10-10-10--|
|--------|-----------|------------------|-----------------|--------------------------|


|-------------------------|---------|-----------|-----------|-------||-----------|
|-------------------------|---------|-----------|-----------|-------||-----------|
|-9/-10-10-10-10-(10)-10--|-10------|-(10)------|-(10)------|-(10)--||-10\-------|
|-------------------------|---------|-----------|-----------|-------||-----------|
                                                               you know i never


|---------|-----------|---------||-------------|------||-----------|---------||
|---------|-----------|---------||o------------|-----o||o----------|--------o||
|---------|-10--------|---------||o------------|-----o||o----------|--------o||
|---------|-----------|---------||---10--------|------||--8--------|---------||


                                                         $               X 4
|------------|--------|----------|---------------------||------------------||
|------------|--------|----------|---------------------||o-5--5-5-5-5-5-5-o||
|--10--------|--------|----------|---------------------||o----------------o||
|------------|--------|-10-------|-10-10---10-10--10\--||------------------||
                                                         Verse 2, 3


                   X4                      X4
||-------------------||-||------------------||-||--------------------||------------------||
||o-----------------o||-||o----------------o||-||o-5---5-5-5-5-5-5--o||o----------------o||
||o-5-5-5-5-5-5-5-5-o||-||o-3--3-3-3-3-3-3-o||-||o------------------o||o-5--5-5-5-5-5-5-o||
||-------------------||-||------------------||-||--------------------||------------------||



 $$                                                      1. , 2.
||----------------|---------------|-------------------|----------------------||
||o---------------|---------------|-4/-5-5-5-4/-5-5-5-|-4/-5-5-5-(5)-5-5-5--o||
||o-3---3-3-2-3-4-|-5---5-5-5-5-5-|-------------------|---------------------o||
||----------------|---------------|-------------------|----------------------||
   Choruses

[ Tab from: http://www.guitartabs.cc/tabs/p/poison/talk_dirty_to_me_btab.html ]
  3.
                                                 To Dbl. Coda          To Coda
|----------------|----------------|---------------------------|----------------|
|----------------|----------------|---------------------------|----------------|
|-7--7-7-7-7-7-7-|-3--3-3-3-3-3-3-|---------------------------|-5--------------|
|----------------|----------------|-5--5-5-5-5-5-5------------|----------------|



                                        D.S. al Coda      &               D     D
|--------------------------|----------------------------||---------|-----|------|
|--------------------------|----------------------------||---------|-----|------|
|-9/-10-10-10-9/-10-10-10--|-9/-10-10-10-(10)-10-10-10\-||---------|-----|------|
|--------------------------|----------------------------||---------|-----|------|



||------------------||-||------------------||-||------------------||----------------|
||o----------------o||-||o-5--5-5-5-5-5-5-o||-||o----------------o||----------------|
||o-3--3-3-3-3-3-3-o||-||o----------------o||-||o-3--3-3-3-3-3-3-o||-5--5-7-7--7-9--|
||------------------||-||------------------||-||------------------||----------------|



|-----------------||------------------||-||------------------||-----------------|
|-----------------||o----------------o||-||o-5--5-5-5-5-5-5-o||-----------------|
|-9--9-10-10--10\-||o-3--3-3-3-3-3-3-o||-||o----------------o||-----------------|
|-----------------||------------------||-||------------------||-5--5-5-5-5-5-5--|



                                       D.S.S. al Dbl. Coda
|--------|--------|--------|-----------|----------------||
|--------|--------|--------|-----------|------5-5-5-5---||
|-5------|--------|--------|-----------|----------------||
|--------|-3------|-3------|-3----3----|-3--------------||



  &&
|------------------|---------------|---------------|----------------|----------------|
|------------------|-5--5-5-5-5-4--|---------------|----------------|----------------|
|-5--5-5-5-5-5-5-5-|---------------|-7---7-7-7-7-7-|-3---3-3-3-3-3--|-5--5-5-5-5-5-5-|
|------------------|---------------|---------------|----------------|----------------|



|------------|---------------|-----------------|---------|-----|----------|---------:--------*|
|-5----5-5-5-|---------------|-----------------|---------|-----|-------5--|-(5)-----:-5------*|
|------------|-7---7-7-7-7-7-|-3---3-3-3-3/-5--|-5-------|-----|----------|---------:--------*|
|------------|---------------|-----------------|---------|-----|----------|---------:--------*|



--------------------------------------------------------------------------------
Legend
------

 h  = hammer-on		 |  = bar
 p  = pull-off		||  = double bar
 b  = bend		||* = repeat start
 r  = bend release	*|| = repeat end
 /  = slide up/down	*|  = double bar (end)
 :  = bar (freetime)
--------------------------------------------------------------------------------

******************************************************************************************
* This file was generated with Power Tab Editor - Get it at http://home.tct.net/~blarsen *
******************************************************************************************

Comments