Poison - Life Goes On Chords & Tabs

 

Life Goes On Chords & Tabs

Poison Chords & Tabs

Version: 1 Type: Tab 0 ratings
1 star 2 stars 3 stars 4 stars 5 stars
comments

Life Goes On Tab

   
Song Name: Life Goes On
Band Name: Poison

This is a great song and it's taken a while to figure out so enjoy it.

Intro Solo:

e--15--15--15--15--15--15----14----12--------------|
B--------------------------------------------------|
G--------------------------------------------------|
D--------------------------------------------------|
A--------------------------------------------------|
E--------------------------------------------------|

e--15--15--15--15--15--15----14----12--------------|
B--------------------------------------------------|
G--------------------------------------------------|
D--------------------------------------------------|
A--------------------------------------------------|
E--------------------------------------------------|


e---14---15---18---15---14---12/5------------------|
B--------------------------------------------------|
G--------------------------------------------------|
D--------------------------------------------------|
A--------------------------------------------------|
E--------------------------------------------------|


e--15--15--15--15--15--15----14----12--------------|
B--------------------------------------------------|
G--------------------------------------------------|
D--------------------------------------------------|
A--------------------------------------------------|
E--------------------------------------------------|

e--15--15--15--15--18--15----14----12--------------|
B--------------------------------------------------|
G--------------------------------------------------|
D--------------------------------------------------|
A--------------------------------------------------|
E--------------------------------------------------|

[ Tab from: http://www.guitartabs.cc/tabs/p/poison/life_goes_on_tab.html ]
e-14--12--12--12--12--12/10--10--10--10--10/9--9--9--9--9/7--7--7--9--10-|
B------------------------------------------------------------------------|
G------------------------------------------------------------------------|
D------------------------------------------------------------------------|
A------------------------------------------------------------------------|
E------------------------------------------------------------------------|

1st Verse:

I [Bm]felt this before
Now I [A]feel it [G]again[A]
[Bm]No matter how hard I try
This [A]feeling won\'t [G]end[G][D/F#]

So [Em]I pretend you\'re [G]here by my [A]side[G][D/F#]
Tonig[Em]ht on t[G]his lonely [A]ride
I keep telling myself that

Chorus:

[D]Life goes [A]on while you\'re [F#m]miles a[Bm]way
And [A]I need [G]you[G][D/F#][G][D/F#]
[D]Time goes [A]on as [F#m]night steals the [Bm]day
There\'s [A]nothing I can [G]do

2nd Verse: Same chords as verse 1

You heal up my wounds
I tasted your tears
You spilled out your heart
So I let out my fears

But one fear that I kept to myself
Was how I prayed that you\'d love no one else
Like you\'re saying you love me

Chorus

[E]If you only [A]knew how much I miss [Bm]you[A][G][G][D/F#]

I dunno so heres the backing chords. (anyone with the solo I would appreciate it).
Solo[Em][G][D][A][G][D/F#][Em][G][A][G][D/F#][Em][D][A][F#m][Bm][A][G]

3rd Verse: Same chords as verse 1

When my mind plays these tricks on me
It shows me things I don\'t want to see
That\'s why I tell myself
I keep telling myself
Just take another piece of me

Chorus

And this last mile I travel with you

Thats it
Enjoy.
Comments