Poison - I Wont Forget You Chords & Tabs

 

I Wont Forget You Chords & Tabs

Poison Chords & Tabs

Version: 2 Type: Tab 0 ratings
1 star 2 stars 3 stars 4 stars 5 stars
comments

I Wont Forget You Tab

   
---------------------------------PLEASE NOTE----------------------------------#
# This file is the author's own work and represents their interpretation of the #
# song. You may only use this file for private study, scholarship, or research. #
#-------------------------------------------------------------------------------#


by RiwaZ ( riwaj_dustnbones@hotmail.com)


There are fewer songs like this.this one's chorus is amazin'.

just enjoy.
the most complicating part of the story is the pluggin.it's headache.so, i'm writing only the 
chords u just play the strings as u like.
----------------------------------------------------

intro:
guitar2
|-------------------------------------
|---8-10-10~--8--10~8----10~r-8-------
|-9--------------------9--------------
|-------------------------------------
|-------------------------------------
|-------------------------------------
|-------------------------------------

note: strictly recommended for (rhytm guitar)
------------------------------
(it is very necessary to play Cadd9 in the chorus ,for perfect accuracy)
|=====================================================================|
|  Cadd9 is played only in the chorus                    | 
|=====================================================================|


after intro:

guiatr1
  (G X Cadd9 X Em X D) X 2

2nd time the chords are played
2nd guitar:
|----10---10------------|---10---10----------------------------|
|-10~--10~--------------|10~--10~--10-10~~~|let-ring-----------|
|-----------9p7^--------|------------------|-7-----------------|
|----------------/12----|--------------------------------------|
|-----------------------|--------------------------------------|
|-----------------------|--------------------------------------|

VERSES 1:(guitar 1&2)
========
  Em             D
Lady night i close my eyes
   C               Bm
n think of those who couldn't be u
    Em
n when i look back
   C                  Bm
i remember somewhere lips u accept to

RIFF:(guitar1&2)
====
   Am
it's been too lost and love
   C            D
u never to me loved, that all

-----------------
CHORUS:(guitar 1&2)
=======
      G
|i won't forget u baby
|      Cadd9 
|(i won't  forget u)
|  Em          D
|even though i Could
|      G
|i won't forget u baby
|      Cadd9
|(i won't  forget u)
|   Em         D       
|even though i should, 
------------------
 (YEAH....)


VERSE 2(same as above)
[ Tab from: http://www.guitartabs.cc/tabs/p/poison/i_wont_forget_you_tab_ver_2.html ]
At the riff:
(guitar2)
|--------------|----------------------------|
|--------------|-10---12-13---15\-(12)------|
|--------------|----------------------------|
|-9--7/-5-\12--|----------------------------|
|--------------|----------------------------|
|--------------|----------------------------|


riff(same as above)

Chorus

bridge(same as riff)

solo:

|-15-17-15-19--19~-19~-19~19~19~-|15-17-15-----------------------------|
|--------------------------------|-------------------------------------|
|--------------------------------|----------14---14^12-12h14~\---------|
|--------------------------------|-------------------------------------|
|--------------------------------|-------------------------------------|
|--------------------------------|-------------------------------------|
            
            HERE SOME BASS STRING
            IS PLAYED NOT EXACT 15.
|--15-17-15---15~----------------|-----------------------------------------------|
|----------15^----15-15~-15^-----|-----------------------------------------------|
|--------------------------------|-----------------------------------------------|
|--------------------------------|-14--------------------------------------------|
|--------------------------------|----15---15-14-15--12--14-15--12---------------|
|--------------------------------|---------------------------------15-15-14-14/--|

RIFF
again,
(guitar2)
|--------------|----------------------------|
|--------------|-10---12-13---15\-(12)------|
|--------------|----------------------------|
|-9--7/(5)\12--|----------------------------|
|--------------|----------------------------|
|--------------|----------------------------|


CHORUS TWICE

OUTRO:

|-15-17-15-19--19~-19~-19~19~19~-|15-17-15-----------------------------|
|--------------------------------|-------------------------------------|
|--------------------------------|----------14---14^12--12h14\---------|
|--------------------------------|-------------------------------------|
|--------------------------------|-------------------------------------|
|--------------------------------|-------------------------------------|

|----10---10---------------10---10-----------------------------|
|-10~--10~--------------10~--10~--10-10~~~-|let-ring-A-WHILE---|
|-----------9p7^---------------------------|7b-----------------|
|---------------/12--------------------------------------------|
|--------------------------------------------------------------|
|--------------------------------------------------------------|



=======================================================
-------------------------------------------------------
any comments?

                          Any correction needed?

if necessary parts are left then just mail( riwaj_dustnbones@hotmail.com) or add here
Comments