Poison - Flesh N Blood Chords & Tabs

 

Flesh N Blood Chords & Tabs

Poison Chords & Tabs

Version: 1 Type: Tab 0 ratings
1 star 2 stars 3 stars 4 stars 5 stars
comments

Flesh N Blood Tab

enjoy comments on riwaj_dustnbones@hotmail.com

intro:-

                                                             
D#||--------------------------|-----------------------------|
A#||--7--7--7--9--9--9--9--9--|--10--10--10-----------------|
F#||--8--8--8--9--9--9--9--9--|--9---9---9------------------|
C#||--------------------------|--7---7---7---9--9--9--9--9--|
G#||--------------------------|--------------7--7--7--7--7--|
D#||--------------------------|-----------------------------|


                                                         
-----------------------------|-------------------------||
--10--10--10--9--9--9--9-----|-------------------------||
--9---9---9---9--9--9--9--2--|-------2--0--4-------0--*||
--------------------------2--|-------2-----4----x-----*||
-----------------------------|----4--------2----x------||
-----------------------------|-------------------------||


                                                          
---------------------------|-----------------------------|
---7--7--7--9--9--9--9--9--|--10--10--10-----------------|
*--8--8--8--9--9--9--9--9--|--9---9---9------------------|
*--------------------------|--7---7---7---9--9--9--9--9--|
---------------------------|--------------7--7--7--7--7--|
---------------------------|-----------------------------|


                                                                               
-----------------------------|-------------------------||---------------------|
--10--10--10--9--9--9--9-----|-------------------------||---------------------|
--9---9---9---9--9--9--9--2--|-------2--0--4-------0--*||*--4-----------------|
--------------------------2--|-------2-----4----x-----*||*--4-----------------|
-----------------------------|----4--------2----x------||---2-----------------|
-----------------------------|-------------------------||------------------4b-|

verse:-

                                                                    
------------------------|-------------------|-----------------------|
------------------------|-------------------|-----------------------|
---------------------2--|----------------2--|-----------------------|
---------------------2--|----------------2--|--------------------4--|
-------------4b-2----0--|----------------0--|----0--4b---2~---0--2--|
----0--4b-0-------------|-------------------|-----------------------|


                                                                  
--------------------|------------------------|-------------------|
--------------------|------------------------|-------------------|
--4-----------------|---------------------2--|----------------2--|
--4-----------------|---------------------2--|----------------2--|
--2-----------------|-------------4b-2----0--|----------------0--|
-----------------4b-|----0--4b-0-------------|-------------------|


                                                                            
-----------------------|-------------------------|-------------------------|
-----------------------|-------------------------|-------------------------|
-----------------------|--4----------------------|----------------------2--|
-----------------------|--4----------------------|----------------------2--|
----0--4b---2~---0--0--|--2----2--2--2--2--2-----|-------------4b-2--0--0--|
-----------------------|----------------------4b-|----0--4b-0--------------|


                                                                           
------------------------|-----------------------|-------------------------|
------------------------|-----------------------|-------------------------|
---------------------2--|-----------------------|--4----------------------|
------2--------------2--|-----------------------|--4----------------------|
------0--0--0--0--0--0--|----0--4b---2~---0--2--|--2----2--2--2--2--2-----|
------------------------|-----------------------|----------------------4b-|


                                                                            
-------------------------|-------------------------|-----------------------|
-------------------------|-------------------------|-----------------------|
----------------------2--|----------------------2--|-----------------------|
----------------------2--|-------2--------------2--|-----------------------|
-------------4b-2--0--0--|----0--0--0--0--0--0--0--|----0--4b---2~---x--2--|
----0--4b-0--------------|-------------------------|-----------------------|


                                                                             
-------x-------x-------|--x-------x--------------|--------------------------|
-------x-------x-------|--x-------x--------------|--9--9--9--9--9--9--9--9--|
--9b------9-------9b---|-----9b------9b-9b-9--9--|--9--9--9--9--9--9--9--9--|
-----------------------|-------------------------|--9--9--9--9--9--9--9--9--|
-----------------------|-------------------------|--7--7--7--7--7--7--7--7--|
-----------------------|-------------------------|--------------------------|


chorus:-

--------------------------|--------------------------|
--9--9--9--9--9--9--9--9--|--7--7--7--9--9--9--9--9--|
--9--9--9--9--9--9--9--9--|--8--8--8--9--9--9--9--9--|
--9--9--9--9--9--9--9--9--|--------------------------|
--7--7--7--7--7--7--7--7--|--------------------------|
--------------------------|--------------------------|


                                                            
-----------------------------|-----------------------------|
--10--10--10-----------------|--10--10--10--9--9--9--9-----|
--9---9---9------------------|--9---9---9---9--9--9--9--2--|
--7---7---7---9--9--9--9--9--|--------------------------2--|
--------------7--7--7--7--7--|--------------------------0--|
-----------------------------|-----------------------------|


                                                    
------------------------|--------------------------|
------------------------|--7--7--7/-9--9--9--9--9--|
-------2/-4--4-------0--|--8--8--8/-9--9--9--9--9--|
----0--2/-4--4----x--0--|--------------------------|
-------------2----x-----|--------------------------|
------------------------|--------------------------|


                                                            
-----------------------------|-----------------------------|
--10--10--10-----------------|--10--10--10--9--9--9--9-----|
--9---9---9------------------|--9---9---9---9--9--9--9--2--|
--7---7---7---9--9--9--9--9--|--------------------------2--|
--------------7--7--7--7--7--|--------------------------0--|
-----------------------------|-----------------------------|


                                                                        
-------------------------||--------------------|-----------------------|
-------------------------||--3-----------------|-----------------------|
-------2-----4-------0--*||--2--------------2--|------2----------------|
-------2--0--4----x-----*||--0--------------2--|------4----2--0-----4--|
----4--------2----x------||-----------------0--|------0----------4--2--|
-------------------------||--------------------|-----------------------|
                               back to verse

solo:-

most eletrifying

[ Tab from: http://www.guitartabs.cc/tabs/p/poison/flesh_n_blood_tab.html ]
                                                                 
------------------------|---------------------|------------------|
----6b-6b-6b-6r------6b-|----6b-6r---4/-------|------------------|
----6b-6b-6b-6r---4--6b-|----6b-6r---4/-------|------------------|
------------------------|---------------------|------------------|
------------------------|---------------------|------------------|
------------------------|---------------------|------------------|


                                                                       
------------------|--22b---------------|------------------------------|
------------------|--22b---------------|--17b-------17b---17b---17b---|
------------------|--------------------|------------------------------|
------------------|--------------------|------------------------------|
------------------|--------------------|------------------------------|
------------------|--------------------|------------------------------|


                                       
--------------------------------------|
--17b---17b---17b---17r---16----14r---|
--------------------------------------|
--------------------------------------|
--------------------------------------|
--------------------------------------|


                                                                                
----22--21--19-22p21-19---------------------------------------------------------
------------------------22-22-21-21-22-22-21-19h21p19-19------------------------
---------------------------------------------------------21-21-19-19-21-19-19-18
--------------------------------------------------------------------------------
--------------------------------------------------------------------------------
--------------------------------------------------------------------------------


                                                             
------------------------------------------------------------|
------------------------------------------------------------|
--19-18----19p18-19p18-----------------------------------7h-|
--------21-------------21-19-18-18h19p18-16-14/12~---12/----|
------------------------------------------------------------|
------------------------------------------------------------|


                                                             
--------------------------------|---------------------------|
-------9b---9b---9b---9b---9b---|--9----9----9----7~---7/---|
--8----9b---9b---9b---9b---9b---|--9----9----9----7~---7/---|
--------------------------------|---------------------------|
--------------------------------|---------------------------|
--------------------------------|---------------------------|


                                                  
-------------------------------------------------|
-------------------------------------------------|
------------------------------------7h9------7h9h|
--------------------4-5-5-x-----7-9------7h9-----|
------0-5h7-0-5-7-5-------x-7-9------------------|
--5h7--------------------------------------------|


                                                                               
-----x----------------------10-9-12-10h14~-------|--------17------------------|
-----x----9-10-12-12-9-10-9----------------------|--17b-------17r---15~---17b-|
--11---11----------------------------------------|----------------------------|
-------------------------------------------------|----------------------------|
-------------------------------------------------|----------------------------|
-------------------------------------------------|----------------------------|


                                                     
----17----------------------|-----------------------|
--------17r---17b-15~-------|--------------7-----7--|
------------------------16~-|------14r--------9b----|
----------------------------|-----------------------|
----------------------------|-----------------------|
----------------------------|-----------------------|


                             
-----------------------7h10-|
--10p7----7--7--------------|
-------9b-------7~----------|
----------------------------|
----------------------------|
----------------------------|


                                                                 
--14p7h10-12p7h10-14p10p7h10-12p10p7h10-14p10p7h10-12p7h10-14p7h|
----------------------------------------------------------------|
----------------------------------------------------------------|
----------------------------------------------------------------|
----------------------------------------------------------------|
----------------------------------------------------------------|


                                                   
--10-16p10p7-17p10p7h10-16p10p7-17p10p7-19t-------|
--------------------------------------------------|
--------------------------------------------------|
--------------------------------------------------|
--------------------------------------------------|
--------------------------------------------------|


                                                                              
--24-19-17-19-24-19-19-19-22-19-19-19-24-19-19-19-22-19-19-19-24-19-24p22-19-|
-----------------------------------------------------------------------------|
-----------------------------------------------------------------------------|
-----------------------------------------------------------------------------|
-----------------------------------------------------------------------------|
-----------------------------------------------------------------------------|


                                                               
--19-22p19-19-19---------------------------22-----------------|
-----------------22-22-19-22p19-19-19-22b-----19-19-21b-21----|
----------------------------------------------------21b-21-19-|
--------------------------------------------------------------|
--------------------------------------------------------------|
--------------------------------------------------------------|


                                                      
--------------------------|--------------------------|
--10----x--10-------10----|--x--10----x--10----------|
--9b----x--9-----0--9b----|--x--9-----x--9r----7-----|
--------------------------|-----------------------9--|
--------------------------|--------------------------|
--------------------------|--------------------------|


                                                                                
--------------------------------------------------19-19-19-19-21-21-21-21-22-22-
--------------20-20-20-20-21-21-21-21-22-22-22-22-------------------------------
--21-21-21-21-------------------------------------------------------------------
--------------------------------------------------------------------------------
--------------------------------------------------------------------------------
--------------------------------------------------------------------------------


                                                                 
--24~-------24b--24b--24b-|------------------|------------------|
--------------------------|------------------|------------------|
--------------------------|------------------|------------------|
--------------------------|------------------|------------------|
--------------------------|------------------|------------------|
--------------------------|------------------|------------------|

end
Comments