Poison - Every Rose Has Its Thorn Chords & Tabs

 

Every Rose Has Its Thorn Chords & Tabs

Poison Chords & Tabs

Version: 3 Type: Tab 0 ratings
1 star 2 stars 3 stars 4 stars 5 stars
comments

Every Rose Has Its Thorn Tab

outro solo
by RiwaZ
--------
after posting the whole song why'd  leav the outro
so in  the easiest way it is given

n i'm better thinkin to post the outro of fallen angel,i hav heard
enough of it to figure it out.
but anyone needs it more faster mail. (riwaj_dustnbones@hotmail.com)

outro:
[ Tab from: http://www.guitartabs.cc/tabs/p/poison/every_rose_has_its_thorn_tab_ver_3.html ]
at the end of 3rd verse
-----------|--------------------|--------------------------------|
-----------|----15--------------|-------------15b----------------|
-14b-12-14-|-14b--14b-14b-14r12-|-14/16-14-14b---14b-12----------|
-----------|--------------------|--------------------------------|
-----------|--------------------|--------------------------------|
-----------|--------------------|--------------------------------|


chorus
----------------|------------------------------------|
-15b-15---------|---------------12h13-12--15---------|
-------14b-12---|------12-14--12--------14--14b-12---|
----------------|-12-14------------------------------|
----------------|------------------------------------|
----------------|------------------------------------|

--------------------------|
-12-14-16r14p-12--12------|
----------------14--------|
--------------------------|
--------------------------|
--------------------------|
Comments