Poison - Every Rose Has Its Thorn Chords & Tabs

 

Every Rose Has Its Thorn Chords & Tabs

Poison Chords & Tabs

Version: 1 Type: Bass Tab

Every Rose Has Its Thorn Bass Tab

There isn't any bass until the bridge which comes in at about 1 minute and ten seconds into the song.
Bridge 1 (1:10)
G-|----------------------------------|--------------------------------|
D-|----------------------------------|--------------------------------|
A-|----2-22----2-22------------------|--------------------------------|
E-|2-22----2-22----------------------|--------------------------------|

Verse 2 (1:25)
G-|----------------------------------|--------------------------------|
D-|----------------------------------|--------------------------------|
A-|----2-22----2-22------------------|--22--22-4-44-2-22--------------|
E-|2-22----2-22----------------------|2---2---------------------------|

Chorus (1:53)
G-|----------------------------------|--------------------------------|
D-|----------------------------------|--------------------------------|
A-|----2-22----2-22------------------|--44-2-22------2-22-------------|
E-|2-22----2-22----------------------|2---------2-22------------------|
[ Tab from: http://www.guitartabs.cc/tabs/p/poison/every_rose_has_its_thorn_btab.html ]
Bridge 2 (2:20)
G-|----------------------------------|--------------------------------|
D-|----------------------------------|--------------------------------|
A-|--44-2------44-2------------------|--------------------------------|
E-|0------22-0------22---------------|--------------------------------|

Solo (2:35)
G-|----------------------------------|--------------------------------|
D-|----------------------------------|--------------------------------|
A-|----2-22----2-22------------------|--4-2-----4-2-2-----2-----------|
E-|2-22----2-22----------------------|0-----2-0-------2-2-------------|

Verse 3 (3:15)
G-|----------------------------------|--------------------------------|
D-|----------------------------------|--------------------------------|
A-|----2-22----2-22------------------|--22--22-4-44-2-22--------------|
E-|2-22----2-22----------------------|2---2---------------------------|

Chorus (3:43)
G-|----------------------------------|--------------------------------|
D-|----------------------------------|--------------------------------|
A-|----2-22----2-22------------------|--44-2-22------2-22-------------|
E-|2-22----2-22----------------------|2---------2-22------------------|