Poirier Joseph - Twelve String Jam Chords & Tabs

 

Twelve String Jam Chords & Tabs

Poirier Joseph Chords & Tabs

Version: 1 Type: Tab 0 ratings
1 star 2 stars 3 stars 4 stars 5 stars
comments

Twelve String Jam Tab

This is for twelve string, standard tuning
my email is joepoirier@earthlink.net email me with comments or suggestions

First fool around on the Am chord, using hammer ons, then go into this:

Repeat two times:
e-----------------------------------------------------------------------------------
B---0^1-1-1-1-1^0----------------------------------------------------------------------------
G------2-2-2-2-2------------------------------------------------------------------------
D------2-2-2-2-2-------------------------------------------------------------------------
A-----------------------------------------------------------------------------------
E-----------------------------------------------------------------------------------

Repeat the same thing except on Em chord.  Do this four-five times.  This is the verse

Chorus:

its just C's and G's with one qquick upward stroke on the D chord in between each.

then go back to the intro

next chorus, at the end. play this off the C chord
[ Tab from: http://www.guitartabs.cc/tabs/p/poirier_joseph/twelve_string_jam_tab.html ]
e----0-0-0-0-0-0-0-0-0----0-0-0-0-0-0-0-0-0----------------------------------------------------------
B----1-1-1-1-1-1-1-1-1----0-0-0-0-0-0-0-0-0-----------------------------------------------------------
G----0-0-0-0-0-0-0-0-0----0-0-0-0-0-0-0-0-0-----------------------------------------------------------
D-----------------------------------------------------------------------------------
A-----------------------------------------------------------------------------------
E-----------------------------------------------------------------------------------
repeat this acouple times then do this:

e------0-0-0----0-0-0---------------------------------------------------------------------
B---1-1-1-1-0-0-0-0------------------------------------------------------------------------
G-----0-0-0----0-0-0----------------------------------------------------------------------
D-----------------------------------------------------------------------------------
A-----------------------------------------------------------------------------------
E-----------------------------------------------------------------------------------
repeat this then go back to the intro

then after playing intro go to chorus and at the end fool around on the 
Am and Em chords.  Then play this.  Hit the final note on this soft but hard and
keep it quivering

e-------------0-------0----------0-----------0---------------------------------------
B-------------1-------1----------1-----------1-----------------------------------------
G-------------0-------0-------0-0--------0-0---------------------0------0----------------
D----------0--------0------2-----------0-----------0------0----2------0---------------------
A--------2--------0------3-----------2-----------2------0----3------2-----------------------
E-----3--------2--------------------------------3------2--------------------------------
Comments