Pogues - Waxies Dargle Break Chords & Tabs

 

Waxies Dargle Break Chords & Tabs

Pogues Chords & Tabs

Version: 1 Type: Chords 0 ratings
1 star 2 stars 3 stars 4 stars 5 stars
comments

Waxies Dargle Break Chords

   
***Waxie's Dargle - Trad. Arr. The Pogues
from the album 'Red Roses For Me'

Waxie's Dargle - as perfomed by The Pogues

     Break: (2x)
[ Tab from: http://www.guitartabs.cc/tabs/p/pogues/waxies_dargle_break_crd.html ]
   G                 C                G
e|---------------------------------------------------------|
B|---------------------------------------------------------|
G|-12-11-9-------------------------------------------------|
D|----------12-9--------------------------------9-10-12-9--|
A|---------------10-12-14-12-10-------10-10-12-------------|
E|------------------------------12-10----------------------|

   G                 C                G         D    G
e|---------------------------------------------------------|
B|---------------------------------------------------------|
G|-12-11-9-------------------------------------------------|
D|----------12-9--------------------------------9----------|
A|---------------10-12-14-12-10-------10-10-12----12-10-10-|
E|------------------------------12-10----------------------|



Chorus

Break (2x)

Chorus

Break 

Chorus
Comments