Pogues - Repeal Of The Licensing Laws Chords & Tabs

 

Repeal Of The Licensing Laws Chords & Tabs

Pogues Chords & Tabs

Version: 1 Type: Tab 0 ratings
1 star 2 stars 3 stars 4 stars 5 stars
comments

Repeal Of The Licensing Laws Tab

   
***Repeal Of The Licensing Laws - by Spider Stacy
from the albums "Red Roses For Me" and "The Rest Of The Best"

Repeal Of The Licensing Laws - as perfomed by The Pogues

Part 1:

       G		      D	     G              D       G
e|-------------------------------------------------------------|
B|-------------------------------------------------------------|
G|-0-2-4-4-4-2-0------0-2-4-4-2--0-2-4-4-4-2-0------0-2-4-2-0--|
D|----------------2-0---------------------------2-0------------|
A|-------------------------------------------------------------|
E|-------------------------------------------------------------|
[ Tab from: http://www.guitartabs.cc/tabs/p/pogues/repeal_of_the_licensing_laws_tab.html ]
     D         G      C       D       G              D       G
e|-------------------------------------------------------------|
B|-------------------------------------------------------------|
G|-0-2-2-2-0-2-4-4-4--2-0-2-4-2---0-2-4-4-4-2-0------0-2-4-2-0-|
D|-----------------------------------------------2-0-----------|
A|-------------------------------------------------------------|
E|-------------------------------------------------------------|

Part 2:

   G		       D   G           D       G
e|-----------------------------------------------|
B|-3-3--5-3----------------3-3--5-3--------------|
G|-----------4-2-0-2-4-2-------------4-2-0-0-0-0-|
D|-----------------------------------------------|
A|-----------------------------------------------|
E|-----------------------------------------------|


   G      D       G     D      G              D       G    
e|--------3---------------------------------------------|
B|-3-3--5----5-3-----------0-2-4-4-4-2-0------0-2-4-2-0-|
G|----------------4-2-0-2-----------------2-0-----------|
D|------------------------------------------------------|
A|------------------------------------------------------|
E|------------------------------------------------------|


Part 1 (2x)
Part 2 (1x)
Part 1 (1x)
Part 2 (1x)
Part 1 (1x) 
Part 2 (3x)
Comments