Pogues - Rake At The Gates Of Hell Chords & Tabs

 

Rake At The Gates Of Hell Chords & Tabs

Pogues Chords & Tabs

Version: 1 Type: Chords 0 ratings
1 star 2 stars 3 stars 4 stars 5 stars
comments

Rake At The Gates Of Hell Chords

   
***Rake at the Gates of Hell - by Shane MacGowan
from the 'Straight to Hell' Soundtrack 

Rake at the Gates of Hell - as perfomed by The Pogues

Intro:
 
e|------------------------|
B|------------------------|
G|----------------0-0-2-0-|
D|------------------------|  4x alone and 4x with C played over it
A|-3-3-3-3-3-3-3----------|
E|------------------------|
[ Tab from: http://www.guitartabs.cc/tabs/p/pogues/rake_at_the_gates_of_hell_crd.html ]
Intro:
 
e|------------------------|
B|------------------------|
G|----------------0-0-2-0-|
D|------------------------|  4x alone and 4x with C played over it
A|-3-3-3-3-3-3-3----------|
E|------------------------|



C Am F C  F C Dm G   C Am F C  F C G

Comments