Pogues - Pistol For Paddy Garcia Chords & Tabs

 

Pistol For Paddy Garcia Chords & Tabs

Pogues Chords & Tabs

Version: 2 Type: Tab 0 ratings
1 star 2 stars 3 stars 4 stars 5 stars
comments

Pistol For Paddy Garcia Tab

   
***A PISTOL FOR PADDY GARCIA - by Shane MacGowan
from the album "Rum Sodomy & The Lash"

A Pistol For Paddy Garcia - as perfomed by The Pogues

Intro		|Em       |Em       ||

Inst 1		|Em  D  Em|Em  D  Am|Bm D G Em|Em  D  Em||

		|Em       D       Em	|Em       D       Am	|Bm    D    G    Em	|Em       D       Em	||

Chorus 1	|G        D	|Am     D	|G        D	|Am       D       Em	||

Inst 2		|Em       D        Em	|Em       D       Am	|Bm    D    G    Em	|Em       D       Em	||

		|Em       D       Em	|Em       D       Am	|Bm    D    G    Em	|Em       D       Em	||

Inst 3		|Em	|Em	|Em	||

Chorus 2	|Em  Bm	|D        G	|Am       D       Em	||

		|G        D	|Am     D	|G        D	|Am       D       Em	||

Outro		|Em       D       Em	|Em       D       Am	|Bm    D    G    Em	|Em       D       Em	||

		|Em       D       Em	|Em       D       Am	|Bm    D    G    Em	|Em       D       Em	||

***Version 2*** by Nick Bray and Harley McPhee (sanch0_panza@hotmail.com)

Thanks to Kristoffer Ekman's tab for some of the chords
[ Tab from: http://www.guitartabs.cc/tabs/p/pogues/pistol_for_paddy_garcia_tab_ver_2.html ]
   Em           D   Em
e|---------------------------------------------------|
B|---------------------------------------------------|
G|-9-9-11-9-7---7---9--|-----------------------------|
D|------------9---9----|                          ---|
A|---------------------|                          ---|
E|---------------------|                          ---|
                                                   |
   Em           D   Am                             |
e|-----------------------|                         |
B|-----------------------|                         |
G|-9-9-11-9-7---7--------|                         |
D|------------9---9-7----|                         |
A|-----------------------|                         |
E|-----------------------|                         |--Repeat this part
                                                   |
   Bm         D  G   Em      D            Em       |
e|-------------------------------------------|     |
B|-------------------------------------------|     |
G|-4-7-4-2-0--4-2-0------0-4-7--4-9-11-9-7-9-|     |
D|------------------2--2---------------------|     |
A|-------------------------------------------|     |
E|-------------------------------------------|     |
                                                   |
  Em            D   Em                             |
e|-----------------------|                        ---|
B|-----------------------|                        ---|
G|-9-9-11-9-7---7---9----|---------------------------|
D|------------9---9----------------------------------|
A|---------------------------------------------------|
E|---------------------------------------------------|

   G
e|--------------------10----|
B|-8-8-10-8-8-10-8-12----12-|
G|--------------------------|
D|--------------------------|
A|--------------------------|
E|--------------------------|

   Am
e|------------------------------|
B|-10-10-12-10-10-12-10-8-7-----|
G|--------------------------7---|
D|------------------------------|
A|------------------------------|
E|------------------------------|
   G
e|--------------------10----|
B|-8-8-10-8-8-10-8-12----12-|
G|--------------------------|
D|--------------------------|
A|--------------------------|
E|--------------------------|

   Am       D Em
e|---------------|
B|-10-12-10-8----|
G|------------9--|
D|---------------|
A|---------------|
E|---------------|

This the faster bit..(not finished)
e|-----------------------|
B|------8-7-5------------|
G|-9--9--------7---------|
D|-----------9-----------|
A|-----------------------|
E|-----------------------|

(The layouts a bit of a mess, I'm sure you fine people can work it out)
Comments