Pogues - Irish Rover Chords & Tabs

 

Irish Rover Chords & Tabs

Pogues Chords & Tabs

Version: 1 Type: Chords 0 ratings
1 star 2 stars 3 stars 4 stars 5 stars
comments

Irish Rover Chords

   
***THE IRISH ROVER - Traditional
From the album 'The Best Of The Pogues' and some singles

THE IRISH ROVER - as perfomed by The Pogues & The Dubliners

       

***Version 2*** by Harley McPhee (sanch0_panza@hotmail.com)

e|-------------------------------------------|
B|-------------------------------------------|
G|-------------0-2-4-2-0---0-----------------|
D|-0--------0------------2---2-0-2-0---------|
A|---2--2--3-------------------------2-3-2-0-|
E|-----3-------------------------------------|
  On the fourth.......................of cork


e|-----------------------------------------|
B|-----------------------------------------|
G|------------0-2-4-2-0---0----------------|
D|-0--------0-----------2--2-0-4-5-7-5-4-5-|
A|---2--2-3--------------------------------|
E|-----3-----------------------------------|
   we were sailing................new york
[ Tab from: http://www.guitartabs.cc/tabs/p/pogues/irish_rover_crd.html ]
e|-------------------------------------------------|
B|-------------------------------------------------|
G|-----0-0-2-4--4-0-2-2-----------0-0-2-4-0-2------|
D|-0-0------------------4-0---0-0-------------4--0-|
A|-------------------------------------------------|
E|-------------------------------------------------|
   Twas a..............aft.   And how..........her

e|---------------------------------------------|
B|---------------------------------------------|
G|------------0-2-4-2-0---0--------------------|
D|-0--------0-----------2--2-0-4-5-7-5-4-5-4-5-|
A|---2--2-3------------------------------------|
E|-----3---------------------------------------|
  She stood several.................Irish Rover

  
She had twenty seven masts
                              D   G
And they called her The Irish Rover

(G'day...not too sure about that C chord, have a good one)
Comments