Pogues - Irish Rover Chords & Tabs

 

Irish Rover Chords & Tabs

Pogues Chords & Tabs

Version: 1 Type: Bass Tab 0 ratings
1 star 2 stars 3 stars 4 stars 5 stars
comments

Irish Rover Bass Tab

Artist: The Pogues & Dubliners
Title : The Irish Rover
Tuning: EADG
Album : Best of the Pogues
Tabber: Justin van Uum

Intro:
G--------------------------------------|
D-------------------------------5-2-0--|
A---5--5---0-2-3---5---5------5-------2|
E-3--3---3-------3---5---5--3----------|

Main Riff
G-----------------------------------------|
D-----------------------------------------|
A---5---5---5---0-2-3------5---5--5---5---|
E-3---3---3---3-------3--3---3------5---5-|
[ Tab from: http://www.guitartabs.cc/tabs/p/pogues/irish_rover_btab.html ]
G----------------------------------|
D----------------------------------|
A---5---5---0-2-3------5--5----5---|
E-3---3---3-------3--3-------5---5-|

G-----------------------------------------|
D-----------------------------------------|
A---5---5--5---5------5---5--5---5-3-2-0--|
E-3---3------5---5--3---3------5----------|

G-----------------------------------------|
D---------------------------------5-2-0---|
A---5---5---0-2-3---5---5------5--------2-|
E-3---3---3-------3---5---5--3------------|

Breakdown:

G---------------------------------------------|
D---------------------------------------------|
A-5---r--3--r--and then intro and main again.-|
E---------------------------------------------|
Comments