Poets Of The Fall - Carnival Of Rust Chords & Tabs

 

Carnival Of Rust Chords & Tabs

Poets Of The Fall Chords & Tabs

Version: 2 Type: Tab

Carnival Of Rust Tab

-----------------------------------------------------------------
CARNIVAL OF RUST - Poets of the Fall
-----------------------------------------------------------------
Tabbed by: FabbA
Email: andreoszwald@hotmail.com

Tuning: standard EADGBe CAPO FIRST FRET!

Intro & Verse :-)

e|---------------------------------------------------------------|
B|-------------7-------7h8-----------------7-------7/8-----------|
G|-------9--------9--------9---------9--------9---------9--------|
D|-----9----9--------9-------------9----9--------9---------------|
A|--7--------------------------10--------------------------------|
E|---------------------------------------------------------------|

                       
e|-------------------------------------------------------0---------|
B|---------------7---------7h8------------5------------7---7-------|
G|--------9---------9----------9-----------------------------------|
D|-----10----10--------10---------------5----5-------7-------7-----|
A|--0-------------------------------3----------3/5-----------------|
E|-----------------------------------------------------------------|

... and another time...

e|---------------------------------------------------------------|
B|-------------7-------7h8-----------------7-------7/8-----------|
G|-------9--------9--------9---------9--------9---------9--------|
D|-----9----9--------9-------------9----9--------9---------------|
A|--7--------------------------10--------------------------------|
E|---------------------------------------------------------------|
[ Tab from: http://www.guitartabs.cc/tabs/p/poets_of_the_fall/carnival_of_rust_tab_ver_2.html ]
e|---------------------------------------------------0-----------|
B|---------------7---------7h8------------5---------7-7----------|
G|--------9---------9----------9---------------------------------|
D|-----10----10--------10---------------5----5-----7---7---------|
A|--0-------------------------------3----------------------------|
E|----------------------------------------------7----------------|

Chorus: I don't know if this is the way to play it in the normal version - in the 
live performance, this is what I got from watching Olli's fingers:

(I'll just tab every chord once)

           Come feed the Rain     C'os I'm thirsty for your love
e|--0---------------------0-----------------0-------------------|
B|--0---------------------0-----------------0-------------------|
G|--11--------------------11----------------9-------------------|
D|--9---------------------9-----------------10------------------|
A|--7---------------------x-----------------10------------------|
E|--0---------------------10----------------8-------------------|

   Dancing underneath the skies of lust
e|--0------------0------------------0---------------------------|
B|--0------------0------------------0--- (repeat the chorus ----|
G|--0------------4------------------1--- this last chord equals |
D|--7------------5------------------9--- the first chord. The --|
A|--7------------5------------------7--- second time you play --|
E|--5------------3------------------0---- it, leave out the ----|
                                         last chord and go to the verse.)

The part with "Don't walk away" is just the chorus again - have fun :-)