Poets Of The Fall - Carnival Of Rust Chords & Tabs

 

Carnival Of Rust Chords & Tabs

Poets Of The Fall Chords & Tabs

Version: 1 Type: Tab

Carnival Of Rust Tab

When playing this great song it would be an advantage to play with
a capo in 1st fret. Listen to the sing to get the real rythm.

s = slide

~ = let ring

Intro/verse:

e|--------3-----3s4---------3-----3s4---------3-----3s4--------------3---3---|
h|-----6----6------6-----6----6------6-----6----6------6------6--------6-----|
g|---5--5-----5--------5--5-----5--------5--5-----5---------5--5---5-------5-|
d|-3-----------------6-------------------------------------------------------|
a|-------------------------------------1------------------4------6-----------|
E|---------------------------------------------------------------------------|
[ Tab from: http://www.guitartabs.cc/tabs/p/poets_of_the_fall/carnival_of_rust_tab.html ]
e|--------3-----3s4---------3-----3s4---------3-----3s4--------------3---3---|
h|-----6----6------6-----6----6------6-----6----6------6------6--------6-----|
g|---5--5-----5--------5--5-----5--------5--5-----5---------5--5---5-------5-|
d|-3-----------------6-------------------------------------------------------|
a|-------------------------------------1------------------4------3-----------|
E|---------------------------------------------------------------------------|

Between first chorus and second verse, play the first line once and then start over.


Chorus + Don't walk away part (overdrive):

e|-1~----3~----6~----4--3-|
h|-1~----3~----6~----4--3-|
g|-1~----3~----6~----4--3-|
d|-3~----5~----8~----6--5-|
a|-3~----5~----8~----6--5-|
E|-1~----3~----6~----4--3-|

The accoustic guitar plays the same chords.

Please feel free to comment (and rate...)