Poesie Noire - Earth Chords & Tabs

 

Earth Chords & Tabs

Poesie Noire Chords & Tabs

Version: 1 Type: Bass Tab 0 ratings
1 star 2 stars 3 stars 4 stars 5 stars
comments

Earth Bass Tab

Artist: Poésie Noire
Song: Earth
Tuning: EADG
Tabbed & Transcribed by: Pati "WiS" Ramirez

Intro
|--------------------------------------------------------------|
|--------------------------------------------------------------|
|----------------5-5-5-5-5-5-5--3-3-3-3-3-3-3-5-2-2-2-2-2-2-2--|
|-3--2--0-0-0-0------------------------------------------------|
[ Tab from: http://www.guitartabs.cc/tabs/p/poesie_noire/earth_btab.html ]
Verse/Chorus
|--------------------------------------------------------------|
|--------------------------------------------------------------|
|-------------3-3-3-3-3-3-5-5-5-5-5-5--------------------------|
|-5-5-5-5-5-5-------------------------5-5-5-5-5-5--------------|

Bridge
|----------------------------------------------------------------------|
|----------------------------------------------------------------------|
|-0000000-000-000-0000000-000-000-0-3-0-5-000-000-000-0-6-5-000-000-000|
|----------------------------------------------------------------------|
Comments