Poesie Noire - Aura Of Sadness Chords & Tabs

 

Aura Of Sadness Chords & Tabs

Poesie Noire Chords & Tabs

Version: 1 Type: Bass Tab 0 ratings
1 star 2 stars 3 stars 4 stars 5 stars
comments

Aura Of Sadness Bass Tab

Artist: Poésie Noire
Song: Aura Of Sadness
Tuning: EADG
Tabbed & Transcribed by Pati "WiS" Ramirez 
[ Tab from: http://www.guitartabs.cc/tabs/p/poesie_noire/aura_of_sadness_btab.html ]
Verse/Chorus
|------------------------------------------------------------|
|------------------------------------------------------------|
|---------7-5--------------------------5--3------------------|
|-5--5-5------8-7--7--7-7-7-0-3--3--3--------3--1--1--1---1--|


Bridge
|------------------------------------------------------------|
|------------------------------------------------------------|
|---------10--8----------------------------------------------|
|-8--8--8--------11--8--8-8----------------------------------|

Any questions just e-mail me!
thespookykidz@hotmail.com
Comments