Pod - Youth Of The Nation Chords & Tabs

 

Youth Of The Nation Chords & Tabs

Pod Chords & Tabs

Version: 9 Type: Tab 0 ratings
1 star 2 stars 3 stars 4 stars 5 stars
comments

Youth Of The Nation Tab

Artist: POD
Song: Youth of the Nation
CD: Satellite
Transcribed By: Josh Minnish
Email: ibanezjoshm@hotmail.com

Tuning: CGCFAD {Drop C}

I tab this for people who dont have effects..this is pretty dang close with out them!! 
Have fun!!!

Play Whole Song with Distortion

Intro & Chorus
D|-------------------------------------|
A|-------------------------------------|
F|-------------------------------------|
C|-----------------5---5---5--5p3--5p3-|
G|-------------------------------------|
C|--0--0--0-0-0--3---3---3-------------|

Verse
D|--------------------------------|
A|--------------------------------|
F|--------------------------------|
C|-----7------5-----5p3-5p3-5p3---|
G|--------------------------------|
C|--0-------0---------------------|

Verse 2  (17)=8 Times (18)=4 Times (5)=12 Times  This gives a Echo Like Effect!!
D|--------------------------------------|
A|-------15---(17)--(18)-------15-------|
F|----14--------------------14-----(5)--|
C|-12--------------------12-------------|
G|--------------------------------------|
C|--------------------------------------|

Solo 
D|-----------------------------------------|
A|-----------------------------------------|
F|--6--8-9-8-9-11--11/9/8--8h9p8/6\8--6/4--|
C|-----------------------------------------| 
G|-----------------------------------------|
C|-----------------------------------------|

The Ending is Nothing but messing around with the ol' Wah Wah Pedal..if ya 
have one just listen to the song then go crazy!! Thats what I do!! It starts by
playing the chorus with a Wah then he goes crazy!! Just thought you might want 
to know this!!

{Lyrics}

Last day of the rest of my life 
I wish I wouldíve known 
Cause I didnít kiss my mama goodbye 
[ Tab from: http://www.guitartabs.cc/tabs/p/pod/youth_of_the_nation_tab_ver_9.html ]
I didnít tell her that I loved her and how much I care 
Or thank my pops for all the talks 
And all the wisdom he shared 

Unaware, I just did what I always do 
Everyday, the same routine 
Before I skate off to school 

But who knew that this day wasnít like the rest 
Instead of taking a test 
I took two to the chest 

Call me blind, but I didnít see it coming 
Everybody was running 
But I couldnít hear nothing 

Except gun blasts, it happened so fast 
I donít really know this kid 
Even though I sit by him in class 

Maybe this kid was reaching out for love 
Or maybe for a moment 
He forgot who he was 
Or maybe this kid just wanted to be hugged 
Whatever it was 
I know itís because 

chorus: 
We are, We are, the youth of the nation 

Little Suzy, she was only twelve 
She was given the world 
With every chance to excel 

Hang with the boys and hear the stories they tell 
She might act kind of proud 
But no respect for herself 

She finds love in all the wrong places 
The same situations 
Just different faces 

Changed up her pace since her daddy left her 
Too bad he never told her 
She deserved much better 

Johnny boy always played the fool 
He broke all the rules 
So you would think he was cool 

He was never really one of the guys 
No matter how hard he tried 
Often thought of suicide 

Itís kind of hard when you ainít got no friends 
He put his life to an end 
They might remember him then 

You cross the line and thereís no turning back 
Told the world how he felt 
With the sound of a gat 

chorus 

Whoís to blame for the lives that tragedies claim 
No matter what you say 
It donít take away the pain 

That I feel inside, Iím tired of all the lies 
Donít nobody know why 
Itís the blind leading the blind 

I guess thatís the way the story goes 
Will it ever make sense 
Somebodyís got to know 

Thereís got to be more to life than this 
Thereís got to be more to everything 
I thought exists 

chorus
Comments