Pod - Youth Of The Nation Chords & Tabs

 

Youth Of The Nation Chords & Tabs

Pod Chords & Tabs

Version: 7 Type: Tab 0 ratings
1 star 2 stars 3 stars 4 stars 5 stars
comments

Youth Of The Nation Tab

POD

Tune to drop D and then tune all the strings down 1 step
CGCFAD

Intro: (with Delay) !!Play slow!!
d--------------------
a--------------------
f--------------------
C-------------5--3-0-
G--------------------
C--0-(hold)-3--------

Verse: (Delay)  !!Play Slow!!
d-------------------
a-------------------
f------2------------
C----0--------5-3-0- x4
G-------------------
C--0------3---------
[ Tab from: http://www.guitartabs.cc/tabs/p/pod/youth_of_the_nation_tab_ver_7.html ]
d----10--12-13----10-----
f--10-----------10-------
a------------------------
C---------------------10-
G------------------------
C------------------------

Chorus: (with Delay)
d--------------------
a--------------------
f--------------------
C-------------5--3-0-
G--------------------
C--0-(hold)-3--------

Bridge: (with Distortion)
d--------------------------------------
a----5-6--5-6--8--8p6p5--5h6p5---5-----
f--7---------------------------7----7-5
C--------------------------------------  x2
G--------------------------------------
C--------------------------------------

if you have any comments,questions are request e mail me at tribalwar21@aol.com

Comments