Pod - Youth Of The Nation Chords & Tabs

 

Youth Of The Nation Chords & Tabs

Pod Chords & Tabs

Version: 6 Type: Tab 0 ratings
1 star 2 stars 3 stars 4 stars 5 stars
comments

Youth Of The Nation Tab

turn your guitar one step down


intro
------------------------------------------------------
------------------------------------------------------
---------------------2-2-2-2--------------------------
---------------------------------------(3h)5p3p0-------
------------------------------------------------------
--0--0--0--0--0--3------------------------------------


middle part
------------------------------------------------------
------------------------------------------------------
-3----1-1-1-1-1---------------------------------------
------------------------------------------------------
------------------------------------------------------
------------------------------------------------------
[ Tab from: http://www.guitartabs.cc/tabs/p/pod/youth_of_the_nation_tab_ver_6.html ]
other
------------------------------------------------------
-16-16-16-16-16-16-16--18-18-18-18-18--19-19-19-------
------------------------------------------------------
------------------------------------------------------
------------------------------------------------------
------------------------------------------------------

solo
------------------------------------------------------
-4--6--7--6--7--9-9--7--6--7--6--4--6--4--2-----------
------------------------------------------------------
------------------------------------------------------
------------------------------------------------------
------------------------------------------------------


any problem just write to kristofferjulemand@jubiimail.dk

i am pretty sure that this is right

thank you for using my tabs  


Comments