Pod - Youth Of The Nation Chords & Tabs

 

Youth Of The Nation Chords & Tabs

Pod Chords & Tabs

Version: 5 Type: Tab 0 ratings
1 star 2 stars 3 stars 4 stars 5 stars
comments

Youth Of The Nation Tab

#----------------------------------PLEASE NOTE--------------------------------#
#This file is the author's own work and represents their interpretation of the#
#song. You may only use this file for private study, scholarship, or research.#
#-----------------------------------------------------------------------------#
#-- File created with Instab - http://www.pconline.com/~smcarey/instab.html --#
#-----------------------------------------------------------------------------#

Author/Artist: P.O.D
Title: Youth Of The Nation
Album: Satellite
Transcribed by: CaRie Jr.(khairy.E)
Email: hybrid_authority@hotmail.com

tuning=CGDGBE
[ Tab from: http://www.guitartabs.cc/tabs/p/pod/youth_of_the_nation_tab_ver_5.html ]
intro
--------------------------------------|
--------------------------------------|
--------------------------------------|
-------------3---3---3---3------------|  4x
--------------------------------------|
-0-0-0-0---3---3---3---3---3-3h2-0----|
                                                                              
verse
--------------------------------------|
--------------------------------------|
--------------------------------------|
-----5-5-----3---3---3---3------------|  4x
--------------------------------------|
-0-0-------3---3---3---3---3-3h2-0----|
                                                                              
then,
-----------------------------------------------------------|
----13-13-13---15-15-15-15-16-16-16--------13----13--------|
-12-------------------------------------12----12-----------|
-------------------------------------------------------8---|  4x
-----------------------------------------------------------|
-----------------------------------------------------------|
                                                                              
chorus(intro)

solo
---------------------------------------------------|
---------------------------------------------------|
---------------------------------------------------|
---10-12-13-12-13-15--15h13h12--12h13-10h12-10/8---|
---------------------------------------------------|
---------------------------------------------------|
                                                                              
 (D-N)
#$PkE3$#

Comments