Pod - Youth Of The Nation Chords & Tabs

 

Youth Of The Nation Chords & Tabs

Pod Chords & Tabs

Version: 3 Type: Tab 0 ratings
1 star 2 stars 3 stars 4 stars 5 stars
comments

Youth Of The Nation Tab

   
Song: Youth Of The Nation
Band: P.O.D.
From: Satellite
By:   Adam Urbz
Mail: pickboy87@cs.com
Tune: Dropped D; Down One Whole Step (C,G,C,F,A,D)

  Intro/Chorus: (Chorus & Delay)
D|-------------------------------------------|
A|-------------------------------------------|
F|*-----------------------------------------*|
C|*-----------------5-----------(3h)5p3p0---*|
G|-------------------------------------------|
C|--0------------3---------------------------|

  Verse Part One: (Chorus & Delay)
D|-------------------------------------------|
A|-------------------------------------------|
F|*-----------------------------------------*|
C|*----7------------5--------5p3--5p3--5p3--*|
G|-------------------------------------------|
C|--0------------3---------------------------|
[ Tab from: http://www.guitartabs.cc/tabs/p/pod/youth_of_the_nation_tab_ver_3.html ]
  Verse Part Two: (Chorus & Delay)
                          1......................    2.........
D|-----------------------|--------------------------|------------|
A|---------------15------|--17-17-17-17--18-18-18---|--1-1-1-1---|
F|*---------14-----------|-------------------------*|-----------*|
C|*----12----------------|-------------------------*|-----------*|
G|-----------------------|--------------------------|------------|
C|--(0)------------------|--------------------------|------------|

  Solo: (Distortion)
D|-----------------------------------------------------------------------|
A|-----------------------------------------------------------------------|
F|*-7~-9~-10~~--9~-10~-12~~--12-10-9----9--10--9--7--9~~~~---7--5~~~~---*|
C|*---------------------------------------------------------------------*|
G|-----------------------------------------------------------------------|
C|-----------------------------------------------------------------------|
Comments