Pod - Youth Of The Nation Chords & Tabs

 

Youth Of The Nation Chords & Tabs

Pod Chords & Tabs

Version: 2 Type: Tab 2 ratings
1 star 2 stars 3 stars 4 stars 5 stars
comments

Youth Of The Nation Tab

artist:p.o.d
title:youth of the nation
album:satallite
all guitars are in dropped-d tuning one whole step down(low to high:cgcfad
intro (0:00)
e-------------------(x4)
b-------------------
g-------------------
d-------5---53~20---
a-----3-------------
e-0-----------------

verse(0:32,1:31,3:29)
e-----------------------------(x2)
b-----------------------------
g-----------------------------
d-----7-7------5---53~20------
a-----------------------------
e-0--------3------------------

2nd verse(2:49)
e-------------12-12-12-12-12-13-13-13-------------------0-----0-----
b---------------------------------------------------1-3---1-3---1-3-
g-------7------------------------------------7----------------------
d---7------------------------------------7--------------------------
a-5------------------------------------5----------------------------
e-------------------------------------------------------------------
[ Tab from: http://www.guitartabs.cc/tabs/p/pod/youth_of_the_nation_tab_ver_2.html ]
chorus(1:11,2:10,3:09)
e------------------(x4)
b------------------
g------------------
d---------5--53~20-
a------------------
e-0-----3----------

solo(2:30)
e---------------------------------------------------------------(x2)
b-------------------------------------------------------------------
g-------------------------------------------------------------------
d-12--14-15----14--15-17----17-15-14---1415~1412-14--12-10----------
a-------------------------------------------------------------------
e-------------------------------------------------------------------

outro(3:48)
e---------------------------------(x3)-----12-12--12-12-
b-------------------------------------------------------
g-------------------------------------------------------
d-2-3-5-2-3-5-2-3-5-2-3-5-2-3-5-3-----------------------
a-------------------------------------------------------
e-------------------------------------------------------

order:
intro,verse,2nd verse,chorus,verse,2nd verse,chorus,solo,2nd verse,
chorus,verse,outro
Comments