Pod - Youth Of The Nation Chords & Tabs

 

Youth Of The Nation Chords & Tabs

Pod Chords & Tabs

Version: 12 Type: Tab 0 ratings
1 star 2 stars 3 stars 4 stars 5 stars
comments

Youth Of The Nation Tab

   
POD - Youth of the Nation
Tab by Ed Antunes

ed.antunes@zmail.pt
=========================

***drop E to C


riff1 - [intro and chorus]  [leaf efect, clean with delay]
e|--------------------------------------------
B|--------------------------------------------
G|--------------------------------------------
D|---------------3-3-3---3-b1-b0-h3-b0--------
A|--------------------------------------------
C|--0-0-0-0-0-3-------------------------------

riff2 - [verse]  [leaf efect, clean with delay]

e|--------------------------------------------
B|--------------------------------------------
G|--------------------------------------------
D|--------------5----3-3-3---3-b1-b0-h3-b0----
A|--------------------------------------------
C|--0-0-0-0---------3-------------------------

riff3 - [verse second part]  [leaf efect, clean with delay]

e|----------------------------------------------
B|---------13-13-13-13--15-15-15-15-16-16-16-16-
G|------12--------------------------------------
D|---10-----------------------------------------
A|----------------------------------------------
C|----------------------------------------------

riff4 - [verse second part]  [leaf efect, clean with delay]

e|----------------------------------------------
B|---------13-13-13-13--------------------------
G|------12----------------3-3-3-3-3-3-3---------
D|---10-----------------------------------------
A|----------------------------------------------
C|----------------------------------------------

riff5 - [solo]  [leaf efect, with soft distorcion]

e|------------------------------------------------
B|------------------------------------------------
G|---5--7--8--7--8--10--12-h13-b12--12--10--8--7--
D|------------------------------------------------
A|------------------------------------------------
C|------------------------------------------------

LYRICS:


[riff1]

[riff2]
[ Tab from: http://www.guitartabs.cc/tabs/p/pod/youth_of_the_nation_tab_ver_12.html ]
Last day of the rest of my life 
I wish I would've known 
Cause I didn't kiss my mama goodbye 
I didn't tell her that I loved her and how much I care 
Or thank my pops for all the talks 
And all the wisdom he shared 
Unaware, I just did what I always do 
Everyday, the same routine 
Before I skate off to school 
But who knew that this day wasn't like the rest 
Instead of taking a test 
I took two to the chest 

[riff3  and  riff4]

Call me blind, but I didn't see it coming 
Everybody was running 
But I couldn't hear nothing 
Except gun blasts, it happened so fast 
I don't really know this kid 
Even though I sit by him in class 
Maybe this kid was reaching out for love 
Or maybe for a moment 
He forgot who he was 
Or maybe this kid just wanted to be hugged 
Whatever it was 
I know it's because 

[riff 1]

chorus: 
We are, We are, the youth of the nation 

[riff2]

Little Suzy, she was only twelve 
She was given the world 
With every chance to excel 
Hang with the boys and hear the stories they tell 
She might act kind of proud 
But no respect for herself 
She finds love in all the wrong places 
The same situations 
Just different faces 
Changed up her pace since her daddy left her 
Too bad he never told her 
She deserved much better 

[riff3  and  riff4]

Johnny boy always played the fool 
He broke all the rules 
So you would think he was cool 
He was never really one of the guys 
No matter how hard he tried 
Often thought of suicide 
It's kind of hard when you ain't got no friends 
He put his life to an end 
They might remember him then 
You cross the line and there's no turning back 
Told the world how he felt 
With the sound of a gat 

[riff1] - chorus 

[riff5] - solo 


[riff3  and  riff4]

Who's to blame for the lives that tragedies claim 
No matter what you say 
It don't take away the pain 
That I feel inside, I'm tired of all the lies 
Don't nobody know why 
It's the blind leading the blind 
I guess that's the way the story goes 
Will it ever make sense 
Somebody's got to know 

There's got to be more to life than this 
There's got to be more to everything 
I thought exists 

chorus

====================================

thats it - I use a Boss ME30 Pedal - the "leaf" is a cool pre-programed efect

Any correction just mail me...PEACE!!!!
Comments