Pod - Without Jah Nothin Chords & Tabs

 

Without Jah Nothin Chords & Tabs

Pod Chords & Tabs

Version: 1 Type: Bass Tab 0 ratings
1 star 2 stars 3 stars 4 stars 5 stars
comments

Without Jah Nothin Bass Tab

Band- Pod
Song- Without Jah Nothin

Legend
^ bend
< accent
... staccato
1st and 2nd endings

Riff 1                                           1st                    2nd
G-----------------------------------|---------------|----------------------|
D-----------------------------------|---------------|----------------------|
A-----------------------------------|---------------|----------------------|
D-2-2-0-2-2-0-2-2-0-2-2-0-5-5-0-5-5-|--0-7-7-0-7-7--|--0-7-7-7-7-7-7-7-7---|
[ Tab from: http://www.guitartabs.cc/tabs/p/pod/without_jah_nothin_btab.html ]
Riff 2      < < < <
G----------------------|
D----------------------|
A----------------------|
D-7^---7^---7-7-7-7----|

Riff 3   . .
G----------------------|--------------------------|
D----------------------|--------------------------|
A----2---2-2-----------|-----2---3-3-----3-2-0----|
D-2--------------0-2-3-|---2----------------------|
     .
G-------------------------------------|
D-------------------------------------|
A----3--------------------------------|
D-2--------------2-2-2-2---1-0-0-0-0--|

End .
G--------|
D--------|
A---3----|
D-2------|
Comments