Pod - Will You Chords & Tabs

 

Will You Chords & Tabs

Pod Chords & Tabs

Version: 4 Type: Tab 0 ratings
1 star 2 stars 3 stars 4 stars 5 stars
comments

Will You Tab

This is my first song that i have tabbed so enjoy!
Tune a whole step down to D.
Tabbed by: Matthew T.

 Intro/Chorus 2X:
 D|------------------------------------------------------------------|
 A|-7---7---10---10---7---7------------------------------------------|
 F|----------------------------5--5--5--5--------7-7-7-6-6-----------|
 C|-5---5---9----9----5---5----5--5--5--5---7--------------7-7-------|
 G|----------------------------3--3--3--3---7------------------5-5---|
 D|-----------------------------------------5------------------------|

Verse 4X:
(Note): You can palm mute the whole power chord if you want, rather than the
base note of it.  Remember to play this part 4 times.

   P.M.---|    P.M.----|    P.M.---|   P.M.------|   P.M.--------------------|
 D|--------------------------------------------------------------------------|
 A|--------------------------------------------------------------------------|
 F|--------9------------5-5---------5----------------------------------------|
 C|--------9------------5-5---------5-----------4-4---7--7--7--7-------------|
 G|-7-7-7--7---7-7-9-9--7-7--3-3-3--3---3-3-5-5-------7--7--7--7-------------|
 D|---------------------------------------------------5--5--5--5-------------|

               P.M.---|
------------------------------------------|
------------------------------------------|
------------------------------------------|
-9-9-9-9-9------7--7--7--7---7-7-7-7-7-9--|
-----------10---7--7--7--7----------------|
----------------5--5--5--5----------------|

  Chorus 2X:

 D|------------------------------------------------------------------|
 A|-7---7---10---10---7---7------------------------------------------|
 F|----------------------------5--5--5--5--------7-7-7-6-6-----------|
 C|-5---5---9----9----5---5----5--5--5--5---7--------------7-7-------|
 G|----------------------------3--3--3--3---7------------------5-5---|
 D|-----------------------------------------5------------------------|


Verse 4X:


   P.M.---|    P.M.----|    P.M.---|   P.M.------|   P.M.--------------------|
 D|--------------------------------------------------------------------------|
 A|--------------------------------------------------------------------------|
 F|--------9------------5-5---------5----------------------------------------|
 C|--------9------------5-5---------5-----------4-4---7--7--7--7-------------|
 G|-7-7-7--7---7-7-9-9--7-7--3-3-3--3---3-3-5-5-------7--7--7--7-------------|
 D|---------------------------------------------------5--5--5--5-------------|

               P.M.---|
------------------------------------------|
------------------------------------------|
------------------------------------------|
-9-9-9-9-9------7--7--7--7---7-7-7-7-7-9--|
-----------10---7--7--7--7----------------|
----------------5--5--5--5----------------|


Chorus 4X:
[ Tab from: http://www.guitartabs.cc/tabs/p/pod/will_you_tab_ver_4.html ]
 D|------------------------------------------------------------------|
 A|-7---7---10---10---7---7------------------------------------------|
 F|----------------------------5--5--5--5--------7-7-7-6-6-----------|
 C|-5---5---9----9----5---5----5--5--5--5---7--------------7-7-------|
 G|----------------------------3--3--3--3---7------------------5-5---|
 D|-----------------------------------------5------------------------|

Bridge Intro:
-------------------------------------------|
-------------------------------------------|
------------10-10-10-10-10-10-10-10-10-10--|
--3-3-3-3---10-10-10-10-10-10-10-10-10-10--|
--3-3-3-3----8--8--8--8--8--8--8--8--8--8--|
--1-1-1-1----------------------------------|

Bridge:
(Note): this is only the strumming part. Play Clean. These are all bar chords.

 D|-7------5---------------7------5---------------|
 A|-8------7-----5---------8------7-----5---------|
 F|-9------7-----6---------9------7-----6---------|
 C|-9------7-----7---------9------7-----7---------|
 G|-7------5-----7---------7------5-----7---------|
 D|--------------5----------------------5---------|

----------------------------3--3--3--3--------------|
-7---7---10---10---7---7----3--3--3--3---5--5--5--5-|
----------------------------5--5--5--5---6--6--6--6-|
-5---5---9----9----5---5----5--5--5--5---7--7--7--7-|
----------------------------3--3--3--3---7--7--7--7-|
-----------------------------------------5--5--5--5-|

----------------------------3--3--3--3--------------|
-7---7---10---10---7---7----3--3--3--3---5--5--5--5-|
----------------------------5--5--5--5---6--6--6--6-|
-5---5---9----9----5---5----5--5--5--5---7--7--7--7-|
----------------------------3--3--3--3---7--7--7--7-|
-----------------------------------------5--5--5--5-|

Chorus 4X:
 D|------------------------------------------------------------------|
 A|-7---7---10---10---7---7------------------------------------------|
 F|----------------------------5--5--5--5--------7-7-7-6-6-----------|
 C|-5---5---9----9----5---5----5--5--5--5---7--------------7-7-------|
 G|----------------------------3--3--3--3---7------------------5-5---|
 D|-----------------------------------------5------------------------|

Ending:

D|-----------------------------------------------------------------------|
A|-7--7---7--7-----------------------------------------------------------|
F|---------------7--7---7--7---5--5---5--5-------7-7-7-6-6-6-----7-7-7-6-|
C|-5--5---5--5---7--7---7--7---5--5---5--5---7----------------7----------|
G|---------------5--5---5--5---3--3---3--3---7----------------7----------|
D|-------------------------------------------5----------------5----------|

------------------------------------------------------------------|
7--7---7--7-----------------------------------------------------7-|
--------------7--7---7--7---5--5---5--5-------7--6------7--6------|
5--5---5--5---7--7---7--7---5--5---5--5---7---------7-----------5-|
--------------5--5---5--5---3--3---3--3---7---------7-------------|
------------------------------------------5---------5-------------|
Comments