Pod - Will You Chords & Tabs

 

Will You Chords & Tabs

Pod Chords & Tabs

Version: 3 Type: Tab 0 ratings
1 star 2 stars 3 stars 4 stars 5 stars
comments

Will You Tab

   
P.O.D.
Will You
Payable On Death
Tuning: All strings one full step down (D G C F A D)
I'm pretty sure Truby has some chorus effect on this song.
The chords in the chorus look pretty iffy, but if you listen closely,
there is a sort of low melody being played under the power chords.

    / : Slide 
    x : Mute String
PM... : Palm Mute
  4h5 : Hammer On
  5p4 : Pull Off

Intro/ First Chorus:
|-----------------------------------------------| 
|-----------------------------------------------| 
|-11-11-11/--14-14-14-14-11-11-11/--14-14-14-14-| 
|--9--9--9/--12-12-12-12--9--9--9/--12-12-12-12-| 
|-10-10-10/--14-14-14-14--x--x--x----x--x--x--x-| 
|------------------------10-10-10/--14-14-14-14-|    \
				         	      )2x
|-----------------------------------------------|    /
|-----------------------------------------------| 
|-9-9-9-9----9--9-9-9-------7-7-7-6-------------| 
|-7-7-7-7----7--7-7-7---------------7-0---------| 
|-x-x-x-x----x--x-x-x---------------------------| 
|-8-8-8-8--8-8--8-8-8-0-5-----------------------| 

Second/Third Chorus:
|-----------------------------------------------| 
|-----------------------------------------------| 
|-11-11-11/--14-14-14-14-11-11-11/--14-14-14-14-| 
|--9--9--9/--12-12-12-12--9--9--9/--12-12-12-12-| 
|-10-10-10/--14-14-14-14--x--x--x----x--x--x--x-| 
|------------------------10-10-10/--14-14-14-14-|   \
                                                     )2x
|-----------------------------------------------|   /
|-----------------------------------------------| 
|-9-9-9-9----9--9-9-9-------7-7-7-6-------------| 
|-7-7-7-7----7--7-7-7---------------7-0---------| 
|-x-x-x-x----x--x-x-x---------------------------| 
|-8-8-8-8--8-8--8-8-8-0-5-----------------------| 

|-----------------------------------------------| 
|-----------------------------------------------| 
|-11-11-11/--14-14-14-14-11-11-11---14-14-14-14-| 
|--9--9--9/--12-12-12-12--9--9--9---12-12-12-12-| 
|-10-10-10/--14-14-14-14--x--x--x---14-14-14-14-| 
|------------------------10-10-10---------------|   \
						     )2x	
|-----------------------------------------------|   / 
|-----------------------------------------------| 
|-9-9-9-9----9--9-9-9-------7-7-7-6-------------| 
|-7-7-7-7----7--7-7-7---------------7-0---------| 
|-x-x-x-x----x--x-x-x---------------------------| 
|-8-8-8-8--8-8--8-8-8-0-5-----------------------| 
[ Tab from: http://www.guitartabs.cc/tabs/p/pod/will_you_tab_ver_3.html ]
Verse:
|-----------------------------------------------| 
|-----------------------------------------------| 
|-----------------------------------------------| 
|-------9---9-------12---------------0-0-4-4----| 
|-7-7-7-7-7-7-10-10----------10---10------------| 
|----------------------8-8-8--8-8--8------------|   \
PM.....   .            .....    .                    )4x
|-----------------------------------------------|   /
|-----------------------------------------------| 
|-----------4-4-4-4-4p0-------------------------| 
|----------------------------------7-7-7-7-7h9--| 
|-------7----------------------7----------------| 
|-5-5-5-5-5--------------5-5-5-5-5--------------| 
PM.....   . ^            .....   .
            possibly  
            an octaver?

Bridge: some of these parts, mainly the second tab staff, are very hard to
hear because of the overdubbed chords (which i had trouble figuring out, sorry).
they're there, you just have to listen a little closer.

|-----------------------------------------------| 
|-------------------------6---6-6-6-6-6-6-6-6-5-| 
|-------------------------5---5-5-5-5-5-5-5-5-4-| 
|-3-----------3-----------3---3-3-3-3-3-3-3-3-2-| 
|-3---3-3-3-3-3---3-3-3---3---3-3-3-3-3-3-3-3-2-| 
|-1---1-1-1-1-1---1-1-1-------------------------| 
    PM.......     .......

(clean tone)
|-0--3--2---------------------------------------| 
|----------0-----2/3--2~------------------------| 
|-----------------------------------------------| 
|-----------------------------------------------| 
|-------------0---------------------------------| 
|-----------------------------------------------| 

|-----------------------------------------------| 
|---------------------3-0-3-0-------------------| 
|-----------------------------0----4-2-4-2------| 
|-2--------4------0-------------2----------0----| 
|----------5----2---5---------------------------| 
|-------7-----5---------------------------------|2x 

|-----------------------------------------------| 
|-----------------------------------------------| 
|-11-11-11/--14-14-14-14-11-11-11/--14-14-14-14-| 
|--9--9--9/--12-12-12-12--9--9--9/--12-12-12-12-| 
|-10-10-10/--14-14-14-14--x--x--x----x--x--x--x-| 
|------------------------10-10-10/--14-14-14-14-|   \
                                                     )2x
|-----------------------------------------------|   /
|-----------------------------------------------| 
|-9-9-9-9----9--9-9-9-----6h7-7--6--6-6-6-------| 
|-7-7-7-7----7--7-7-7-----7---7--7--7-7-7-------| 
|-x-x-x-x----x--x-x-x-----5---5--5--5-5-5-------| 
|-8-8-8-8--8-8--8-8-8---0-----------------------|
Outro:

|-----------------------------------------------| 
|-----------------------------------------------| 
|-11--11----11--11----11--11-----11--11---------| 
|--9---9-----9---9-----9---9------9---9---------| 
|-10--10----10--10-----x---x------x---x---------| 
|---------------------10--10-----10--10---------| 

|-----------------------------------------------| 
|-----------------------------------------------| 
|--9---9-----9---9---------7-7-7-6-----7--6-----| 
|--7---7-----7---7------------------------------| 
|--x---x-----x---x------------------------------| 
|--8---8-----8---8-----5------------5-----------| 

|-----------------------------------------------| 
|-----------------------------------------------| 
|-11--11----11--11----11--11-----11--11---------| 
|--9---9-----9---9-----9---9------9---9---------| 
|-10--10----10--10-----x---x------x---x---------| 
|---------------------10--10-----10--10---------| 

|-----------------------------------------------| 
|-----------------------------------------------| 
|--9---9-----9---9---------7---6-------7---6----| 
|--7---7-----7---7------------------------------| 
|--x---x-----x---x------------------------------| 
|--8---8-----8---8-----5-----------5------------| 

|--------| 
|--------| 
|-11~----| 
|--9~----| 
|-10~----| 
|--------| 
Please rate
-guywithguitar
Comments